PrimaNota.ru - самый крупный в мире бесплатный архив песенных текстов, аккордов, табулатур и нот


Bad Bad Hats - Shame - таба, видео

Регистрация Запомнить меня
Войти через:  Facebook Google Twitter Vk Yandex Mail.ru

Bad Bad Hats - Shame - таба, видео

Печатать
Просмотров: 185
Уроки эстрадного вокала в Санкт-Петербурге
-------------------------------------------------------------------------------
                             Shame - Bad Bad Hats
-------------------------------------------------------------------------------

Tuning: Standard, No Capo

Riff 1, A:

   G     A#        G     A#        G     A#        G     A#  G#  F#
e|-----------------------------------------------------------------|
B|-----------------------------------------------------------------|
G|-----------------------------------------------------------------|
D|-5-5-x-8-8---x-x-5-5-x-8-8---x-x-5-5-x-8-8---x-x-5-5-x-8-8-6-6-4-|
A|-5-5-x-8-8---x-x-5-5-x-8-8---x-x-5-5-x-8-8---x-x-5-5-x-8-8-6-6-4-|
E|-3-3-x-6-6---x-x-3-3-x-6-6---x-x-3-3-x-6-6---x-x-3-3-x-6-6-4-4-2-|

Riff 1, B:
   G     A#        G     A#        G     A#        G     A#  G#  F#
e|-----------------------------------------------------------------|
B|-----------------------------------------------------------------|
G|-----------------------------------------------------------------|
D|-----------------------------------------------------------------|
A|-----------------------------------------------------------------|
E|-3-3---6-6-------3-3---6-6-------3-3---6-6-------3-3---6-6-4-4-2-|

Riff 1, C:

   G     A#        G     A#        G     A#        G     A#  G#  F#
e|-------------0-------------------------------0-------------------|
B|-------------0-------------------------------0-------------------|
G|-------------0-------------------------------0-------------------|
D|-5-5-x-8-8-------5-5-x-8-8-------5-5-x-8-8-------5-5-x-8-8-6-6-4-|
A|-5-5-x-8-8-------5-5-x-8-8-------5-5-x-8-8-------5-5-x-8-8-6-6-4-|
E|-3-3-x-6-6-------3-3-x-6-6---0---3-3-x-6-6-------3-3-x-6-6-4-4-2-|

Riff 1, D:
   G     A#        G     A#        G     A#        G     A#  G#  F#
e|-------------x-x-------------x-x-------------x-x-----------------|
B|-------------x-x-------------x-x-------------x-x-----------------|
G|-------------x-x-------------x-x-------------x-x-----------------|
D|-----------------------------------------------------------------|
A|-----------------------------------------------------------------|
E|-3-3-x-6-6-------3-3-x-6-6-------3-3-x-6-6-------3-3-x-6-6-4-4-2-|

Riff 2:
  G        C        A#    C       A#  G        C        A#          C   A#
e|------------------------------------------------------------------------|
B|------------------------------------------------------------------------|
G|------------------------------------------------------------------------|
D|------------------------------------------------------------------------|
A|------------------------------------------------------------------------|
E|-3---3---/8---8---6---6-8---8-8-6---\3---3---/8---8---6---6---6---8-8-6-|

[Riff 1, A] x2

[Riff 1, B] x2
Loved you once, shame on me 
Loved you twice, count to three 

[Riff 2] x2
I don't wanna be afraid of you 
Always runnin' away 
I don't wanna get used to you 
Never comin' my way

[Riff 1, C] x2

[Riff 1, D] x2
Rotten heart, eats at me 
Bites the bullet, swallows the key

[Riff 2] x2
I don't wanna be afraid of you 
Always runnin' away 
I don't wanna get used to you 
Never comin' my way

[Riff 1, A] x

[Riff 2] x2
I don't wanna be afraid of you 
Always runnin' away 
I don't wanna get used to you 
Never comin' my way

[Riff 2] x2
I don't wanna be afraid of you 
Always runnin' away 
I don't wanna get used to you 
Never comin' my way

My way...  my... WAY

[Riff 1, C] x2


************************************

| /   slide up
| \   slide down
| h   hammer-on
| p   pull-off
| ~   vibrato
| +   harmonic
| x   Mute note
| b   Bend
| pb  Pre-bend
| br  Bend release
| pbr Pre-bend release
| brb Bend release bend

************************************
Добавлено: 30.05.2016
Другие материалы по этой песне:
  • Аккорды и текст

Страница создана 30.05.2016
http://primanota.ru/bad-bad-hats/shame-chords.htm
Привет, Гость.
Предлагаем пройти революционный курс по гитаре.
Подарок от PrimaNota.Ru, забирай!