PrimaNota.ru - самый крупный в мире бесплатный архив песенных текстов, аккордов, табулатур и нот


Bad Astronaut - Catherine Morgan - текст песни, таба, видео

Регистрация Запомнить меня
Войти через:  Facebook Google Twitter Vk Yandex Mail.ru

Bad Astronaut - Catherine Morgan - текст песни, таба, видео

Печатать
Просмотров: 135
-------------------------------------------------------------------------------
BAD ASTRONAUT Catherine Morgan
-------------------------------------------------------------------------------
 
By: Pablo Lastra (plastra@mail.smu.edu)
 
... - palm mute    h - hammer-on
~ - let ring out   p - pull-off
\ - slide
x                     5x
x - muffled strings   5x - choke chord just after strumming
x                     3x
 
GUITAR 1's PARTS (Rhythm)
-------------------------
Verse, Rhythm Figure 1 X 3 (0:01, 0:15, 0:28)
note: there's a piano in the background playing the same chords
 
Rhythm Figure 1
e|---------------------------------------------------------------------------|
B|---------------------------------------------------------------------------|
G|-7-7-7-7-7-7-------------4-4-4-4-4-4-2-2-2-2-2-2-------------2-2-2-2-2-2---|
D|-7-7-7-7-7-7-4-4-4-4-4-4-4-4-4-4-4-4-2-2-2-2-2-2-5-5-5-5-5-5-2-2-2-2-2-2---|
A|-5-5-5-5-5-5-4-4-4-4-4-4-2-2-2-2-2-2-0-0-0-0-0-0-5-5-5-5-5-5-0-0-0-0-0-0---|
E|-------------2-2-2-2-2-2-------------------------3-3-3-3-3-3---------------|
 
Rhythm Figure 1 Continued Cont'd:          |first two times ends like
this
e|-----------------------------------------|---------------------------------|
B|-----------------------------------------|---------------------------------|
G|-------------2-2-2-2-2-2-7-7-7-7-7-7-7-7-|-x-x-x-0-0-0---------------------|
D|-5-5-5-5-5-5-2-2-2-2-2-2-7-7-7-7-7-7-7-7-|-x-x-x-0-0-0---------------------|
A|-5-5-5-5-5-5-0-0-0-0-0-0-5-5-5-5-5-5-5-5-|-x-x-x-0-0-0---------------------|
E|-3-3-3-3-3-3-----------------------------|---------------------------------|
                                                   . . .
 
Rhythm Figure 2 (0:46)
e|-------------------------------------------------------|
B|-------------------------------------------------------|
G|-7-7-7-------------2-2-2-2-2-2-7-7-7-7-7-7-7-7-7-7-7-7-|
D|-7-7-7-5-5-5-5-5-5-2-2-2-2-2-2-7-7-7-7-7-7-7-7-7-7-7-7-|
A|-5-5-5-5-5-5-5-5-5-0-0-0-0-0-0-5-5-5-5-5-5-5-5-5-5-5-5-|
E|-------3-3-3-3-3-3-------------------------------------|
   . . .
 
Rhythm Figure 2 Cont'd:
e|-----------------------------------------|
B|-----------------------------------------|
G|-------------2-2-2-2-2-2-7-7-7-7-7-7-7~--|
D|-5-5-5-5-5-5-2-2-2-2-2-2-7-7-7-7-7-7-7~--|
A|-5-5-5-5-5-5-0-0-0-0-0-0-5-5-5-5-5-5-5~--|
E|-3-3-3-3-3-3-----------------------------|
 
 
Outro: Rhythm Figure 3 X 2 (1:09)
 |first time only         |
e|------------------------|-------------------------------------------------|
B|------------------------|-------------------------------------------------|
G|------------------------|-7-7-7-7-7-7-------------4-4-4-4-4-4-2-2-2-2-2-2-|
D|-5-5-5-5-5-5-7-7-7-7-7-7|-7-7-7-7-7-7-4-4-4-4-4-4-4-4-4-4-4-4-2-2-2-2-2-2-|
A|-5-5-5-5-5-5-7-7-7-7-7-7|-5-5-5-5-5-5-4-4-4-4-4-4-2-2-2-2-2-2-0-0-0-0-0-0-|
E|-3-3-3-3-3-3-5-5-5-5-5-5|-------------2-2-2-2-2-2-------------------------|
   . . . . . . . . . . . .
 
Rhythm Figure 3 Cont'd:
 |2nd time play this after RF3
e|------------------------------------------------|---------------------|
B|------------------------------------------------|---------------------|
G|-------------2-2-2-2-2-2-------------2-2-2-2-2-2|-7-7-7-7-7-7~---7~---|
D|-5-5-5-5-5-5-2-2-2-2-2-2-5-5-5-5-5-5-2-2-2-2-2-2|-7-7-7-7-7-7~---7~---|
A|-5-5-5-5-5-5-0-0-0-0-0-0-5-5-5-5-5-5-0-0-0-0-0-0|-5-5-5-5-5-5~---5~---|
E|-3-3-3-3-3-3-------------3-3-3-3-3-3------------|---------------------|
 
Rhythm Fig. 1 X 3
Rhythm Fig. 2
Rhythm Fig. 3 X 2
 
GUITAR 2's PARTS
-----------------------
Listen closely for Riff A and B The first part of Riff A coincides with
certain lines on the verse(i.e.,"It had to be," "over the ice," "seems
like a box," "I know it's right," "the cobwebs and moss," "that make you
rise"), and the second part goes with the next line of the verse. Riff B
is played once at the end of each verse.
 
Riff A (0:06, 0:09, 0:20, 0:22, 0:33, 0:36)|Riff B (0:12, 0:25, 0:38)
e|-----------------------------------------|---------------------------------|
B|-----------------------------------------|---------------------------------|
G|-6-7-9-7--12/7---------------------------|-7/9/11/12~----------------------|
D|-x-x-x-x---x-x---------------------------|-x-x--x--x-----------------------|
A|-4-5-7-5--10/5---------------------------|-5/7/-9/10~----------------------|
E|-----------------------------------------|---------------------------------|
 
Guitar solo (0:52)
e|---------------------------------------------------------------------------|
B|---------------------------------------------------------------------------|
G|-9-7/6~-12/14-14-14-12-11-9/11-11-11-9-11-7x-7-7x-7-7x---------------------|
D|-x-x-x---x--x--x--x--x--x-x--x--x--x-x--x-x--x-x--x-x----------------------|
A|-7-5/4~-10/12-12-12-10--9-7/-9--9--9-7--9-5x-5-5x-5-5x---------------------|
E|---------------------------------------------------------------------------|
 
Interlude (1:00)
 
Cello transcribed for guitar. These are the notes;
slide/hammer-on/pull-off as
you see fit, this is how I play it
e|---------------------------------------------------------------------------|
B|---------------------------------------------------------------------------|
G|---------------------------------------------------------------------------|
D|---------------------------------------------------------------------------|
A|-9~-5h7-5/4-5-7h9-7h9-10/12------------------------------------------------|
E|---------------------------------------------------------------------------|
 
Outro (1:12)
e|---------------------------------------------------|
B|---------------------------------------------------|
G|-7-7-7-7-7-11-9-7-6-7/9/11/12~--6/7/9/7--12/7------|
D|-x-x-x-x-x--x-x-x-x-x-x--x--x---x-x-x-x---x-x------|
A|-5-5-5-5-5--9-7-5-4-5/7/-9/10~--4/5/7/5--10/5------|
E|---------------------------------------------------|
 
Outro Cont'd.
e|-------------------------------------------------|
B|-------------------------------------------------|
G|-6-7-9-11-11-11-11-12-11-12-9-7--6/7/9/7--12/7---|
D|-x-x-x--x--x--x--x--x--x--x-x-x--x-x-x-x---x-x---|
A|-4-5-7--9--9--9--9-10--9-10-7-5--4/5/7/5--10/5---|
E|-------------------------------------------------|
 
Outro Cont'd.
e|------------------------------------------|
B|------------------------------------------|
G|-6/7-9/7-12-12-11-9~-9x-9-9x-6-7-9-7~--7x-|
D|-x-x-x-x--x--x--x-x--x--x-x--x-x-x-x---7x-|
A|-4/5-7/5-10-10--9-7~-7x-7-7x-4-5-7-5~--5x-|
E|------------------------------------------|
 
Riff A X 2
Riff B
Riff A X 2
Riff B
Riff A X 2
Riff B
Solo
Interlude
Outro
 
-----------------------------------------------------------------------------
This file is all my work. Questions, corrections, and comments welcome at
plastra@mail.smu.edu. Please don't try to pass off this tab as yours,
'cause
I worked hard to figure out this song and tab it, even if it's not
perfect.
     
Добавлено: 02.12.2013
Вам также может быть интересно:
Другие материалы по этой песне:
  • Аккорды и текст

Страница создана 02.06.2012
http://primanota.ru/bad-astronaut/catherine-morgan-chords.htm
Привет, Гость.
Предлагаем пройти революционный курс по гитаре.
Подарок от PrimaNota.Ru, забирай!