PrimaNota.ru - самый крупный в мире бесплатный архив песенных текстов, аккордов, табулатур и нот


Bad Astronaut - Another Dead Romance - аккорды и текст, видео

Регистрация Запомнить меня
Войти через:  Facebook Google Twitter Vk Yandex Mail.ru

Bad Astronaut - Another Dead Romance - аккорды и текст, видео

Печатать
Просмотров: 107
Another Dead Romance
Bad Astronaut
"Another Dead Romance"
from Houston, We Have A Drinking Problem
by Bad Astronaut
tabbed by Thomas

This song is just two parts with a little variations here and there.

Part 1
e|----------------------------------------------------|
B|----------------------------------------------------|
G|-7----7--7-7--5----5--5-5---------------------------|
D|-7----7--7-7--4----4--4-4--5----5--5-5--8----8--8-8-|
A|-5----5--5-5--5----5--5-5--5----5--5-5--8----8--8-8-|
E|---------------------------3----3--3-3--6----6--6-6-|

e|----------------------------------------------------|
B|----------------------------------------------------|
G|-7---7--7-7--5--5-5----------7---7--7-7--7---7--7-7-|
D|-7---7--7-7--5--5-5--7--7-7--7---7--7-7--7---7--7-7-|
A|-5---5--5-5--3--3-3--7--7-7--5---5--5-5--5---5--5-5-|
E|---------------------5--5-5-------------------------|

e|----------------------------------------------------|
B|----------------------------------------------------|
G|-7----7--7-7--5----5--5-5---------------------------|
D|-7----7--7-7--4----4--4-4--5----5--5-5--8----8--8-8-|
A|-5----5--5-5--5----5--5-5--5----5--5-5--8----8--8-8-|
E|---------------------------3----3--3-3--6----6--6-6-|

e|--------------------------------------------------------|
B|--------------------------------------------------------|
G|-7---7--7-7--5--5-5-------------------------------------|
D|-7---7--7-7--5--5-5--7--7-7--3---3--3-3--3--3-3--7--7-7-|
A|-5---5--5-5--3--3-3--7--7-7--3---3--3-3--3--3-3--7--7-7-|
E|---------------------5--5-5--1---1--1-1--1--1-1--5--5-5-|


e|------------------------|
B|------------------------|
G|-7---7--7-7--7---7--7-7-|
D|-7---7--7-7--7---7--7-7-|
A|-5---5--5-5--5---5--5-5-|
E|------------------------|


Part 2
e|----------------------------------------------------|
B|----------------------------------------------------|
G|-4----4--4-4---------------7----7--7-7--------------|
D|-4----4--4-4--5----5--5-5--7----7--7-7--7----7--7-7-|
A|-2----2--2-2--5----5--5-5--5----5--5-5--7----7--7-7-|
E|--------------3----3--3-3---------------5----5--5-5-|

e|----------------------------------------------------|
B|----------------------------------------------------|
G|-4----4--4-4---------------7----7--7-7--------------|
D|-4----4--4-4--5----5--5-5--7----7--7-7--8-----------|
A|-2----2--2-2--5----5--5-5--5----5--5-5--8-(let ring)|
E|--------------3----3--3-3---------------6-----------|

The whole song is these two parts.  The little acoustic diddy in the
middle is just a variation of Part 1 that goes like this:

e|----------------------------------------------------|
B|-3----3--3-3--1----1--1-1--3----3--3-3--3----3--3-3-|
G|-2----2--2-2--2----2--2-2--0----0--0-0--3----3--3-3-|
D|-0----0--0-0----------------------------3----3--3-3-|
A|--------------3----3--3-3--2----2--2-2--1----1--1-1-|
E|---------------------------3----3--3-3--------------|

This is my first tab that I've posted, I played it with the song a couple of 
times
and it sounds pretty accurate to me.  Any questions or what not can be sent 
to
yhcmiles25@hotmail.com

_________________________________________________________________
     
Добавлено: 14.06.2013
Другие материалы по этой песне:
  • Аккорды и текст

Страница создана 29.06.2012
http://primanota.ru/bad-astronaut/another-dead-romance-chords.htm
Привет, Гость.
Предлагаем пройти революционный курс по гитаре.
Подарок от PrimaNota.Ru, забирай!