PrimaNota.ru - самый крупный в мире бесплатный архив песенных текстов, аккордов, табулатур и нот


Backyard Babies - Pigs For Swine - аккорды и текст, видео

Регистрация Запомнить меня
Войти через:  Facebook Google Twitter Vk Yandex Mail.ru

Backyard Babies - Pigs For Swine - аккорды и текст, видео

Печатать
Просмотров: 50
Новый альбом группы 'Черный Кузнец' по культовому сериалу 'Сверхъестественное'!
Pigs For Swine
Backyard Babies
[Intro]

 e-----------------------------|-------------------------------------|
 B-----------------------------|-------------------------------------|
 G---------6--8--6-------------|-------------------------------------|  2x
 D---8--8--6--8--6--8--6--8----|---14\8-8-8-8--8-8--8-8\9\8--6-8-6--8|
 A---8--8--4--6--4--8--6--8----|---12\6-6-6-6--6-6--6-6\7\6--4-6-4--8|
 E---6--6-----------6--4--6----|------------------------------------6|

 e------------------------|
 B------------------------|
 G----6-6-6-6-------------|   3x
 D----6-6-6-6----6---8-8--|
 A----4-4-4-4----6---8-8--|
 E---------------4---6-6--|

 e---------------------------|
 B---------------------------|
 G---------------------------|
 D---6\8---9--8--6--8--6-----|
 A---4\6---7--6--4--6--4--8--|
 E------------------------6--|



************************************

| \  Slide down

************************************
Добавлено: 11.02.2018
Другие материалы по этой песне:
  • Аккорды и текст

Страница создана 06.03.2012
http://primanota.ru/backyard-babies/pigs-for-swine-chords.htm
Привет, Гость.
Предлагаем пройти революционный курс по гитаре.
Подарок от PrimaNota.Ru, забирай!