PrimaNota.ru - самый крупный в мире бесплатный архив песенных текстов, аккордов, табулатур и нот


Backyard Babies - My Demonic Side - аккорды и текст, видео

Регистрация Запомнить меня
Войти через:  Facebook Google Twitter Vk Yandex Mail.ru

Backyard Babies - My Demonic Side - аккорды и текст, видео

Печатать
Просмотров: 138
Уроки эстрадного вокала в Санкт-Петербурге
My Demonic Side
Backyard Babies
Group: Backyard Babies
Song: My Demonic Side
Album: Making Enemies Is Good
Tabbed By: Daniel Persson (d.persson@post.com)

Intro:
e|---------------------------|
H|---------------------------|
G|---------------------------|
D|-7-7-6-6--6-6p4-4-6-6h7-6--|
A|-7-7/6-6-------------------|
E|-5-5/4-4-------------------|

Verse
D|-x-x-6-6-x-x-6-6-x-x-6-6-x-7-7-7-|
A|-x-x-6-6-x-x-6-6-x-x-6-6-x-7-7-7-|
E|-x-x-4-4-x-x-4-4-x-x-4-4-x-5-5-5-|
       Im in a world...

Bridge
e|------------------------------------------|
H|------------------------------------------|
G|---4-6-6-6-6-6-x--------------------------|
D|-6-4-6-6-6-6-6-x-7-7/7-7-6-6p4-4-6-6h7-6--|
A|-6-2-4-4-4-4-4-x-7-7/7-7------------------|
E|-4-------------x-5-5/4-4------------------|
pm       . . . . 
   Put me trough...

Refrain
e|-----------------|
H|-----------------|
G|-6---9---4---6---|
D|-6---9---4---6---|
A|-4---7---2---4---|
E|-----------------|
   Would you follow...

Keep on rockin... 
/Daniel
-- 
     
Добавлено: 08.11.2013
Другие материалы по этой песне:

Страница создана 19.04.2012
http://primanota.ru/backyard-babies/my-demonic-side-chords.htm
Привет, Гость.
Предлагаем пройти революционный курс по гитаре.
Подарок от PrimaNota.Ru, забирай!