PrimaNota.ru - самый крупный в мире бесплатный архив песенных текстов, аккордов, табулатур и нот


Backtrack - The Worst Of Both Worlds - таба, видео

Регистрация Запомнить меня
Войти через:  Facebook Google Twitter Vk Yandex Mail.ru

Backtrack - The Worst Of Both Worlds - таба, видео

Печатать
Просмотров: 155
-------------------------------------------------------------------------------
The Worst Of Both Worlds
Backtrack
Darker Half
-------------------------------------------------------------------------------
Tabbed by: Reece Goddard

Tuning:DGCFAd

My cover: http://www.youtube.com/watch?v=Hga-5GA-rOE

d|------------------------|--------------------------------|\
A|------------------------|--------------------------------| \
F|------------------------|--------------------------------|  \
C|------------------------|--------------------------------|   \
G|-------6--------5-3-6-2-|-------6--------5-3-6-2-/7p5h7~-|    \
D|-0-0-0-4--0-0-0-3-1-4-0-|-0-0-0-4--0-0-0-3-1-4-0---------|     \
 P.M....  P.M....         P.M....  P.M....                      Intro
d|-----------------------------|---------------------------|     /
A|-----------------------------|---------------------------|    /
F|------------------------5*bu-|---------------------------|   /
C|-----------------------------|---------------------------|  /
G|-------6--------5-3-6-2------|-------6--------5--3-------| /
D|-0-0-0-4--0-0-0-3-1-4-0------|-0-0-0-4--0-0-0-3--1-------|/
 P.M....  P.M....              P.M....  P.M....   P.M
  Play this before each ending.     1.3       2.      4.
d|---------------------------------|---------|-----0-|-----------------------|\
A|---------------------------------|---------|-----0-|-----------------------| \
F|.-------------------------------.|---------|-----0-|-----------------------|Chorus 
C|.-------------------------------.|---------|-------|-----------------------|  
G|-------6--------5/6\5--------6-3-|-2-2-2-2-|-2-2---|-------6-3-2-x-2-------| /
D|-0-0-0-4--0-0-0-3/4\3--0-0-0-4-1-|-0-0-0-0-|-0-0---|-0-0-0-4-1-0-x-0-------|/
 P.M....  P.M....      P.M....     P.M...... P.M..   P.M....

d|------------------------|------------------------|-------------------------|\
A|------------------------|------------------------|-------------------------| \
F|------------------------|------------------------|-------------------------|Verse
C|------------------------|------------------------|-------------------------|
G|-------6----------6-3-2-|-------6----------6-3-2-|-------6--------5-3------| /
D|-0-0-0-4----0-0-0-4-1-0-|-0-0-0-4----0-0-0-4-1-0-|-0-0-0-4--0-0-0-3-1------|/
 P.M....    P.M....       P.M....    P.M....       P.M....  P.M....  P.M
  Play this before each ending.     1.3       2.      4.
d|---------------------------------|---------|-----0-|-----------------------|\
A|---------------------------------|---------|-----0-|-----------------------| \
F|.-------------------------------.|---------|-----0-|-----------------------|Chorus 
C|.-------------------------------.|---------|-------|-----------------------|  
G|-------6--------5/6\5--------6-3-|-2-2-2-2-|-2-2---|-------6-3-2-x-2-------| /
D|-0-0-0-4--0-0-0-3/4\3--0-0-0-4-1-|-0-0-0-0-|-0-0---|-0-0-0-4-1-0-x-0-------|/
 P.M....  P.M....      P.M....     P.M...... P.M..   P.M....

d|------------------------|------------------------|-------------------------|\
A|------------------------|------------------------|-------------------------| \
F|------------------------|------------------------|-------------------------|Verse
C|------------------------|------------------------|-------------------------|
G|-------6----------6-3-2-|-------6----------6-3-2-|-------6--------5-3------| /
D|-0-0-0-4----0-0-0-4-1-0-|-0-0-0-4----0-0-0-4-1-0-|-0-0-0-4--0-0-0-3-1------|/
 P.M....    P.M....       P.M....    P.M....       P.M....  P.M....  P.M

d|---------------------------------------------|              \
A|---------------------------------------------|               \
F|---------------------------------------------|                \
C|---------------------------------------------|                 \
G|-------6-------------------6-3-2-------------|                  \
D|-0-0-0-4-(4-4-4-4)x8-0-0-0-4-1-0-(0-0-0-0)x6-|                   \ 
 P.M....  P.M......  P.M....      P.M......             Bridge (Listen to the song for timing)
d|-----------------------------------------------------------|     /
A|-----------------------------------------------------------|    /
F|-----------------------------------------------------------|   /
C|-----------------------------------------------------------|  /
G|-------6-------------------6-3-2---------------6-------5-3-| /
D|-0-0-0-4-(4-4-4-4)x8-0-0-0-4-1-0-0-0-0-0-0-0-0-4-0-0-0-3-1-|/
 P.M....  P.M......  P.M....      P.M...........  P.M...
  Play this before each ending.     1.3       2.      4.
d|---------------------------------|---------|-----0-|-----------------------|\
A|---------------------------------|---------|-----0-|-----------------------| \
F|.-------------------------------.|---------|-----0-|-----------------------|Chorus 
C|.-------------------------------.|---------|-------|-----------------------|  
G|-------6--------5/6\5--------6-3-|-2-2-2-2-|-2-2---|-------6-3-2-x-2-------| /
D|-0-0-0-4--0-0-0-3/4\3--0-0-0-4-1-|-0-0-0-0-|-0-0---|-0-0-0-4-1-0-x-0-------|/
 P.M....  P.M....      P.M....     P.M...... P.M..   P.M....

d|----------------------0-|-------------|               \
A|----------------------0-|-------------|                \
F|----------------------0-|-------------|                 \
C|------------------------|-------------|                  \
G|-3----6----3-6-3-2--3---|-2-2-----2-2-|                   \
D|-1----4----1-4-1-0--1---|-0-0-----0-0-|                    \
                          P.M..   P.M..                   Breakdown
d|------|--------------------------|-------------------|     /
A|------|-Play this 3 times--------|-------------------|    /
F|------|.------------------------.|-------------------|   /
C|------|.----------------5-6-----.|-------------------|  /
G|------|---6---5---6---5-3-4-6-5--|---6---5---6---5-3-| /
D|--12\-|-0-4-0-3-0-4-0-3-----4-3--|-0-4-0-3-0-4-0-3-1-|/
                            P.M..
d|-------------------------|-------------------------------------------------|
A|---Play this 4 times-----|-----4th time end on-----------------------------|
F|-------------------------|-------------------------------------------------|
C|-----------------5-6-----|-------------------------------------------------|
G|---6---5---6---5-3-4-6-5-|-6~----------------------------------------------|
D|-0-4-0-3-0-4-0-3-----4-3-|-4~----------------------------------------------|
                     P.M..

https://www.facebook.com/BacktrackNYHC

************************************

| /   slide up
| \   slide down
| h   hammer-on
| p   pull-off
| ~   vibrato
| +   harmonic
| x   Mute note
| b   Bend
| pb  Pre-bend
| br  Bend release
| pbr Pre-bend release
| brb Bend release bend

************************************
Добавлено: 15.09.2013
Другие материалы по этой песне:
  • Аккорды и текст

Страница создана 10.08.2013
http://primanota.ru/backtrack/the-worst-of-both-worlds-chords.htm
Привет, Гость.
Предлагаем пройти революционный курс по гитаре.
Подарок от PrimaNota.Ru, забирай!