PrimaNota.ru - самый крупный в мире бесплатный архив песенных текстов, аккордов, табулатур и нот


Backstreet Boys - Weve Got It Going On - текст песни, таба, бас-таба, видео

Регистрация Запомнить меня
Войти через:  Facebook Google Twitter Vk Yandex Mail.ru

Backstreet Boys - Weve Got It Going On - текст песни, таба, бас-таба, видео

Печатать
Просмотров: 285
Уроки эстрадного вокала в Санкт-Петербурге
-------------------------------------------------------------------------------
                             WE'VE GOT IT GOIN' ON - Backstreet boys
-------------------------------------------------------------------------------
Tabbed by: metallhead
Email: homesticky@gmail.com

Tuning: E A D G B E


Gtr I (E A D G B E) - 'Strings'
Gtr II (E A D G B E) - 'Voice Oohs'
Gtr III (E A D G B E) - 'Brass'
Gtr IV (E A D G B E) - 'Guitar'
Gtr V (E A D G B E) - 'Voice'

  Q=113
 4/4
  Gtr I
  W                     W                  W                     W
|-6------------------|--4----------------|-6------------------|--4-----------|
|-7------------------|--6----------------|-7------------------|--6-----------|
|-8------------------|--7----------------|-8------------------|--7-----------|
|-8------------------|--6----------------|-8------------------|--6-----------|
|--------------------|-------------------|--------------------|--------------|
|--------------------|-------------------|--------------------|--------------|
|
| Gtr II
| Q  E E +E  E +E  E   +E  E +E  E Q  Q    Q  E E +E  E +E  E   +Q.   E H
|-2----2-(2)-------1-|-(1)-1-(1)-2-6--4--|-2----2-(2)-------1-|-(1)----------|
|-4--4-4-(4)-4-(4)-3-|-(3)-3-(3)-4-7--6--|-4--4-4-(4)-4-(4)-3-|-(3)----------|
|----3-------3-(3)---|-------------------|----3-------3-(3)---|--------------|
|--------------------|-------------------|--------------------|--------------|
|--------------------|-------------------|--------------------|--------------|
|--------------------|-------------------|--------------------|--------------|
|
| Gtr III
| W                     W                  W                     H      H
|--------------------|-------------------|--------------------|--------------|
|--------------------|-------------------|--------------------|--------------|
|--------------------|-------------------|--------------------|--------------|
|--------------------|-------------------|--------------------|---------6----|
|--------------------|-------------------|--------------------|--------------|
|--------------------|-------------------|--------------------|---------4----|


   W
|-11-----------------------|
|--------------------------|
|--------------------------|
|--------------------------|
|--------------------------|
|--------------------------|
|
| Gtr III
|  E E   E E   E E   E S S
|--------------------------|
|--------------------------|
|----3---2-3---------------|
|--------------3-4---0-1---|
|--------------------------|
|----6---5-6---1-2---------|
|
| Gtr IV
|  E S S E S S E S S E S S
|----2-----2-----2-----2---|
|----4-----4-----4-----4---|
|----3-----3-----3-----3---|
|--------------------------|
|--------------------------|
|--------------------------|


   W                          W
|-10-----------------------|-11------------------------|
|--------------------------|---------------------------|
|--------------------------|---------------------------|
|--------------------------|---------------------------|
|--------------------------|---------------------------|
|--------------------------|---------------------------|
|
|  E E   E E   E E   E S S    Q     E E   E S S E E
|--------------------------|---------------------------|
|--------------------------|---------------------------|
|----3---2-3---------------|--3-----2-3---4-3-----3----|
|--------------3-4---0-1---|---------------------------|
|----1---------------------|--1------------------------|
|--------5-6---1-2---------|--------5-6---7-6-----6----|
|
|  E S S E S S E S S E S S    E S S E S S E S S E S S
|----1-----1-----1-----1---|----2-----2-----2-----2----|
|----3-----3-----3-----3---|----4-----4-----4-----4----|
|----3-----3-----3-----3---|----3-----3-----3-----3----|
|--------------------------|---------------------------|
|--------------------------|---------------------------|
|--------------------------|---------------------------|


   W
|-10-----------------------|
|--------------------------|
|--------------------------|
|--------------------------|
|--------------------------|
|--------------------------|
|
|  E S S Q     H
|--------------------------|
|--------------------------|
|--4-3---------------------|
|--------------------------|
|--------------------------|
|--7-6---------------------|
|
|  E S S E S S E S S E S S
|----1-----1-----1-----1---|
|----3-----3-----3-----3---|
|----3-----3-----3-----3---|
|--------------------------|
|--------------------------|
|--------------------------|


   W                          W
|-11-----------------------|-10------------------------|
|-11-----------------------|--9------------------------|
|--8-----------------------|--7------------------------|
|--------------------------|---------------------------|
|--------------------------|---------------------------|
|--------------------------|---------------------------|
|
|  E E   E E   E E   E S S    E E   E E   E E   E S S
|--------------------------|---------------------------|
|--------------------------|---------------------------|
|----3---2-3---------------|----3---2-3----------------|
|--------------3-4---0-1---|--------------3-4---0-1----|
|--------------------------|----1----------------------|
|----6---5-6---1-2---------|--------5-6---1-2----------|
|
|  E S S E S S E S S E S S    E S S E S S E S S E S S
|----2-----2-----2-----2---|----1-----1-----1-----1----|
|----4-----4-----4-----4---|----3-----3-----3-----3----|
|----3-----3-----3-----3---|----3-----3-----3-----3----|
|--------------------------|---------------------------|
|--------------------------|---------------------------|
|--------------------------|---------------------------|


   W                          H.           Q
|-11-----------------------|-10---------------|
|-11-----------------------|--9---------------|
|--8-----------------------|--7---------------|
|--------------------------|------------------|
|--------------------------|------------------|
|--------------------------|------------------|
|
|  Q     E E   E S S E E      E  S S Q  H
|--------------------------|------------------|
|--------------------------|------------------|
|--3-----2-3---4-3-----3---|--4--3------------|
|--------------------------|------------------|
|--1-----------------------|------------------|
|--------5-6---7-6-----6---|--7--6------------|
|
|  E S S E S S E S S E S S    W
|----2-----2-----2-----2---|------------------|
|----4-----4-----4-----4---|------------------|
|----3-----3-----3-----3---|------------------|
|--------------------------|------------------|
|--------------------------|------------------|
|--------------------------|------------------|


  W                W
|---------------|-------------------------------|
|-8-------------|--9----------------------------|
|-8-------------|-------------------------------|
|-8-------------|--9----------------------------|
|---------------|-------------------------------|
|---------------|-------------------------------|
|
| Gtr V
| H    +Q   E E   +S  S E +S  S E +E  E +E  E
|---------------|-------------------------------|
|-4----(4)----2-|-(2)---------------------------|
|-----------3---|-------4-(4)---3-(3)-1-(1)-----|
|---------------|-------------------------------|
|---------------|-------------------------------|
|---------------|-------------------------------|
|
| W                W
|---------------|-------------------------------|
|---------------|-------------------------------|
|---------------|-------------------------------|
|---------------|-------------------------------|
|---------------|-------------------------------|
|---------------|-------------------------------|


  W                    W
|-------------------|-------------|
|-8-----------------|--9----------|
|-------------------|-------------|
|-8-----------------|--9----------|
|-------------------|-------------|
|-------------------|-------------|
|
| E E E E E E +E  E   +H     H
|-------------------|-------------|
|-----------2-(2)---|-------------|
|-3-3-3-1-3-------4-|-(4)---------|
|-------------------|-------------|
|-------------------|-------------|
|-------------------|-------------|


  W                W
|---------------|--------------------------------|
|-8-------------|--9-----------------------------|
|---------------|--------------------------------|
|-8-------------|--9-----------------------------|
|---------------|--------------------------------|
|---------------|--------------------------------|
|
| H    +Q   E E   +S  S E +S  S E +E  E +E  S S
|---------------|--------------------------------|
|-4----(4)----2-|-(2)----------------------------|
|-----------3---|-------4-(4)---3-(3)-1-(1)---1--|
|---------------|--------------------------------|
|---------------|--------------------------------|
|---------------|--------------------------------|


  +H         +Q..       S    W             W
|-------------------------|-------------|---------------------------------|
|-(9)--------(9)--------9-|--8----------|--8------------------------------|
|-------------------------|-------------|--8------------------------------|
|-(9)--------(9)--------9-|--8----------|--8------------------------------|
|-------------------------|-------------|-10------------------------------|
|-------------------------|-------------|---------------------------------|
|
|  E. S E. S  E   E E E     +H     H       E S S +S  E S +S  E S +E  S S
|-------------------------|-------------|---------------------------------|
|-----------------2-------|-------------|--2-2-2-(2)-2-4-(4)-4-4-(4)------|
|--3--1-3--1--3-------4---|-(4)---------|------------------------------3--|
|-------------------------|-------------|---------------------------------|
|-------------------------|-------------|---------------------------------|
|-------------------------|-------------|---------------------------------|


   W           W           W            W
|-----------|-----------|------------|--------------------------|
|--9--------|-11--------|------------|--------------------------|
|-----------|-12--------|-10---------|-11-----------------------|
|--9--------|-----------|-12---------|-13-----------------------|
|-11--------|-13--------|------------|--------------------------|
|-----------|-----------|------------|--------------------------|
|
| Gtr III
|  W           W           H    H       E E   E E   E E   E S S
|-----------|-----------|------------|--------------------------|
|-----------|-----------|------------|--------------------------|
|-----------|-----------|------------|----3---2-3---------------|
|-----------|-----------|-------6----|--------------3-4---0-1---|
|-----------|-----------|------------|--------------------------|
|-----------|-----------|-------4----|----6---5-6---1-2---------|
|
| Gtr IV
|  W           W           W            E S S E S S E S S E S S
|-----------|-----------|------------|----2-----2-----2-----2---|
|-----------|-----------|------------|----4-----4-----4-----4---|
|-----------|-----------|------------|----3-----3-----3-----3---|
|-----------|-----------|------------|--------------------------|
|-----------|-----------|------------|--------------------------|
|-----------|-----------|------------|--------------------------|


   W
|--------------------------|
|--9-----------------------|
|-10-----------------------|
|-12-----------------------|
|--------------------------|
|--------------------------|
|
|  E E   E E   E E   E S S
|--------------------------|
|--------------------------|
|----3---2-3---------------|
|--------------3-4---0-1---|
|----1---------------------|
|--------5-6---1-2---------|
|
|  E S S E S S E S S E S S
|----1-----1-----1-----1---|
|----3-----3-----3-----3---|
|----3-----3-----3-----3---|
|--------------------------|
|--------------------------|
|--------------------------|


   W                          H           H
|--------------------------|--------------7------------|
|-11-----------------------|--9------------------------|
|-11-----------------------|-10------------------------|
|-13-----------------------|-12------------------------|
|--------------------------|---------------------------|
|--------------------------|---------------------------|
|
|  Q     E E   E S S E E      E S S Q     H
|--------------------------|---------------------------|
|--------------------------|---------------------------|
|--3-----2-3---4-3-----3---|--4-3----------------------|
|--------------------------|---------------------------|
|--1-----------------------|---------------------------|
|--------5-6---7-6-----6---|--7-6----------------------|
|
|  E S S E S S E S S E S S    E S S E S S E S S E S S
|----2-----2-----2-----2---|----1-----1-----1-----1----|
|----4-----4-----4-----4---|----3-----3-----3-----3----|
|----3-----3-----3-----3---|----3-----3-----3-----3----|
|--------------------------|---------------------------|
|--------------------------|---------------------------|
|--------------------------|---------------------------|


  W                         W                         W
|-6-----------------------|-4-----------------------|-6------------------------|
|-7-----------------------|-6-----------------------|-7------------------------|
|-8-----------------------|-7-----------------------|-8------------------------|
|-------------------------|-------------------------|--------------------------|
|-------------------------|-------------------------|--------------------------|
|-------------------------|-------------------------|--------------------------|
|
| E E   E E   E E   E S S   E E   E E   E E   E S S   Q     E E   E S S E E
|-------------------------|-------------------------|--------------------------|
|-------------------------|-------------------------|--------------------------|
|---3---2-3---------------|---3---2-3---------------|-3-----2-3---4-3-----3----|
|-------------3-4---0-1---|-------------3-4---0-1---|--------------------------|
|-------------------------|---1---------------------|-1------------------------|
|---6---5-6---1-2---------|-------5-6---1-2---------|-------5-6---7-6-----6----|
|
| E S S E S S E S S E S S   E S S E S S E S S E S S   E S S E S S E S S E S S
|---2-----2-----2-----2---|---1-----1-----1-----1---|---2-----2-----2-----2----|
|---4-----4-----4-----4---|---3-----3-----3-----3---|---4-----4-----4-----4----|
|---3-----3-----3-----3---|---3-----3-----3-----3---|---3-----3-----3-----3----|
|-------------------------|-------------------------|--------------------------|
|-------------------------|-------------------------|--------------------------|
|-------------------------|-------------------------|--------------------------|


  H           H             W                         W
|-4-----------7-----------|-6-----------------------|-4------------------------|
|-6-----------------------|-7-----------------------|-6------------------------|
|-7-----------------------|-8-----------------------|-7------------------------|
|-------------------------|-------------------------|--------------------------|
|-------------------------|-------------------------|--------------------------|
|-------------------------|-------------------------|--------------------------|
|
| E S S Q     H             E E   E E   E E   E S S   E E   E E   E E   E S S
|-------------------------|-------------------------|--------------------------|
|-------------------------|-------------------------|--------------------------|
|-4-3---------------------|---3---2-3---------------|---3---2-3----------------|
|-------------6-----------|-------------3-4---0-1---|-------------3-4---0-1----|
|-------------------------|-------------------------|---1----------------------|
|-7-6---------4-----------|---6---5-6---1-2---------|-------5-6---1-2----------|
|
| E S S E S S E S S E S S   E S S E S S E S S E S S   E S S E S S E S S E S S
|---1-----1-----1-----1---|---2-----2-----2-----2---|---1-----1-----1-----1----|
|---3-----3-----3-----3---|---4-----4-----4-----4---|---3-----3-----3-----3----|
|---3-----3-----3-----3---|---3-----3-----3-----3---|---3-----3-----3-----3----|
|-------------------------|-------------------------|--------------------------|
|-------------------------|-------------------------|--------------------------|
|-------------------------|-------------------------|--------------------------|


  W
|-6-----------------------|
|-7-----------------------|
|-8-----------------------|
|-------------------------|
|-------------------------|
|-------------------------|
|
| Q     E E   E S S E E
|-------------------------|
|-------------------------|
|-3-----2-3---4-3-----3---|
|-------------------------|
|-1-----------------------|
|-------5-6---7-6-----6---|
|
| E S S E S S E S S E S S
|---2-----2-----2-----2---|
|---4-----4-----4-----4---|
|---3-----3-----3-----3---|
|-------------------------|
|-------------------------|
|-------------------------|


   H           H             W
|-11-----------7-----------|-6------------------------|
|--9-----------------------|-7------------------------|
|-10-----------------------|-8------------------------|
|-12-----------------------|--------------------------|
|--------------------------|--------------------------|
|--------------------------|--------------------------|
|
|  E S S Q     H             E E   E E   E E   E S S
|--------------------------|--------------------------|
|--------------------------|--------------------------|
|--4-3---------------------|---3---2-3----------------|
|--------------------------|-------------3-4---0-1----|
|--------------------------|--------------------------|
|--7-6---------------------|---6---5-6---1-2----------|
|
|  E S S E S S E S S E S S   E S S E S S E S S E S S
|----1-----1-----1-----1---|---2-----2-----2-----2----|
|----3-----3-----3-----3---|---4-----4-----4-----4----|
|----3-----3-----3-----3---|---3-----3-----3-----3----|
|--------------------------|--------------------------|
|--------------------------|--------------------------|
|--------------------------|--------------------------|


  W                         W
|-------------------------|-6-----------------------|
|-6-----------------------|-4-----------------------|
|-7-----------------------|-------------------------|
|-------------------------|-------------------------|
|-------------------------|-------------------------|
|-------------------------|-------------------------|
|
| E E   E E   E E   E S S   Q     E E   E S S E E
|-------------------------|-------------------------|
|-------------------------|-------------------------|
|---3---2-3---------------|-3-----2-3---4-3-----3---|
|-------------3-4---0-1---|-------------------------|
|---1---------------------|-1-----------------------|
|-------5-6---1-2---------|-------5-6---7-6-----6---|
|
| E S S E S S E S S E S S   E S S E S S E S S E S S
|---1-----1-----1-----1---|---2-----2-----2-----2---|
|---3-----3-----3-----3---|---4-----4-----4-----4---|
|---3-----3-----3-----3---|---3-----3-----3-----3---|
|-------------------------|-------------------------|
|-------------------------|-------------------------|
|-------------------------|-------------------------|


   H           H
|-11-----------7------------|
|--9------------------------|
|-10------------------------|
|-12------------------------|
|---------------------------|
|---------------------------|
|
|  E S S Q     H
|---------------------------|
|---------------------------|
|--4-3----------------------|
|---------------------------|
|---------------------------|
|--7-6----------------------|
|
|  E S S E S S E S S E S S
|----1-----1-----1-----1----|
|----3-----3-----3-----3----|
|----3-----3-----3-----3----|
|---------------------------|
|---------------------------|
|---------------------------|


  Gtr V
  +S  S S S S S S S S S E S E S   S S S S S S S S S S S S S E S
|-------------------------------|-------------------------------|
|-------------------------------|-------------------------------|
|-(3)-1---1-------------------3-|---1---1---------------------3-|
|-------------4-6---4-------4---|-----------4-6---6---4-----4---|
|-------------------------6-----|-------------------------6-----|
|-------------------------------|-------------------------------|


  +S  S S S S S S S E E E S S   +S  S S S S S S S S S S S E E
|-----------------------------|-------------------------------|
|-----------------------------|-------------------------------|
|-(3)-1---1-----------------3-|-(3)-1---1---------------------|
|-------------4-6---4-----4---|-------------4-6---6---4-------|
|-----------------------6-----|---------------------------4-6-|
|-----------------------------|-------------------------------|


  Gtr I
   W                        +W
|-23---------------------|-(23)-----------------------|
|------------------------|----------------------------|
|-20---------------------|-(20)-----------------------|
|------------------------|----------------------------|
|------------------------|----------------------------|
|------------------------|----------------------------|
|
| Gtr V
|  E S S S S S S E E E E     E  S S S S S S E E E S S
|------------------------|----------------------------|
|------------------------|----------------------------|
|------------------------|----------------------------|
|--4-3-1---------4-------|---4--3-1---------------4---|
|----------4-6-------4-6-|------------4-6---6---6-----|
|------------------------|----------------------------|


   +W
|-(23)------------------------|
|-----------------------------|
|-(20)------------------------|
|-----------------------------|
|-----------------------------|
|-----------------------------|
|
|   E  S S +S  S E E E E S S
|-----------------------------|
|-----------------------------|
|---3--1-1-(1)----------------|
|--------------4-6-4-----4----|
|----------------------6------|
|-----------------------------|


  W                        W
|------------------------|-3-----------------------------|
|------------------------|-4-----------------------------|
|------------------------|-3-----------------------------|
|------------------------|-5-----------------------------|
|------------------------|-------------------------------|
|------------------------|-------------------------------|
|
| Gtr II
| W                        W
|------------------------|-------------------------------|
|------------------------|-------------------------------|
|------------------------|-------------------------------|
|------------------------|-------------------------------|
|------------------------|-------------------------------|
|------------------------|-------------------------------|
|
| Gtr V
| E S S +S  S S S E E Q    E S S +S  E S +S  E S +E  S S
|------------------------|-------------------------------|
|------------------------|-2-2-2-(2)-2-4-(4)-4-4-(4)-----|
|-3-1-1-(1)--------------|-----------------------------3-|
|-----------4-6---4------|-------------------------------|
|------------------------|-------------------------------|
|------------------------|-------------------------------|


  W
|-4-------------------------|
|-0-------------------------|
|-1-------------------------|
|---------------------------|
|---------------------------|
|---------------------------|
|
| S E S +S  E S +E  E +E  E
|-1-1-1-(1)-1-2-(2)-1-(1)---|
|---------------------------|
|---------------------------|
|---------------------------|
|---------------------------|
|---------------------------|
|
| S E S +S  E S +E  E +E  E
|---------------------------|
|-2-2-2-(2)-2-4-(4)-2-(2)---|
|---------------------------|
|---------------------------|
|---------------------------|
|---------------------------|


  W          W           W
|-6--------|-----------|-------------------------|
|-8--------|-6---------|-7-----------------------|
|----------|-7---------|-8-----------------------|
|-8--------|-----------|-------------------------|
|----------|-----------|-------------------------|
|----------|-----------|-------------------------|
|
| Gtr III
| W          H    H      E E   E E   E E   E S S
|----------|-----------|-------------------------|
|----------|-----------|-------------------------|
|----------|-----------|---3---2-3---------------|
|----------|------6----|-------------3-4---0-1---|
|----------|-----------|-------------------------|
|----------|------4----|---6---5-6---1-2---------|
|
| Gtr IV
| W          W           E S S E S S E S S E S S
|----------|-----------|---2-----2-----2-----2---|
|----------|-----------|---4-----4-----4-----4---|
|----------|-----------|---3-----3-----3-----3---|
|----------|-----------|-------------------------|
|----------|-----------|-------------------------|
|----------|-----------|-------------------------|


   W
|--------------------------|
|--9-----------------------|
|-10-----------------------|
|-12-----------------------|
|--------------------------|
|--------------------------|
|
|  E E   E E   E E   E S S
|--------------------------|
|--------------------------|
|----3---2-3---------------|
|--------------3-4---0-1---|
|----1---------------------|
|--------5-6---1-2---------|
|
|  E S S E S S E S S E S S
|----1-----1-----1-----1---|
|----3-----3-----3-----3---|
|----3-----3-----3-----3---|
|--------------------------|
|--------------------------|
|--------------------------|


   W                          H           H
|--------------------------|--------------7------------|
|-11-----------------------|--9------------------------|
|-11-----------------------|-10------------------------|
|-13-----------------------|-12------------------------|
|--------------------------|---------------------------|
|--------------------------|---------------------------|
|
|  Q     E E   E S S E E      E S S Q     H
|--------------------------|---------------------------|
|--------------------------|---------------------------|
|--3-----2-3---4-3-----3---|--4-3----------------------|
|--------------------------|---------------------------|
|--1-----------------------|---------------------------|
|--------5-6---7-6-----6---|--7-6----------------------|
|
|  E S S E S S E S S E S S    E S S E S S E S S E S S
|----2-----2-----2-----2---|----1-----1-----1-----1----|
|----4-----4-----4-----4---|----3-----3-----3-----3----|
|----3-----3-----3-----3---|----3-----3-----3-----3----|
|--------------------------|---------------------------|
|--------------------------|---------------------------|
|--------------------------|---------------------------|


  W                         W                         W
|-6-----------------------|-4-----------------------|-6------------------------|
|-7-----------------------|-6-----------------------|-7------------------------|
|-8-----------------------|-7-----------------------|-8------------------------|
|-------------------------|-------------------------|--------------------------|
|-------------------------|-------------------------|--------------------------|
|-------------------------|-------------------------|--------------------------|
|
| E E   E E   E E   E S S   E E   E E   E E   E S S   Q     E E   E S S E E
|-------------------------|-------------------------|--------------------------|
|-------------------------|-------------------------|--------------------------|
|---3---2-3---------------|---3---2-3---------------|-3-----2-3---4-3-----3----|
|-------------3-4---0-1---|-------------3-4---0-1---|--------------------------|
|-------------------------|---1---------------------|-1------------------------|
|---6---5-6---1-2---------|-------5-6---1-2---------|-------5-6---7-6-----6----|
|
| E S S E S S E S S E S S   E S S E S S E S S E S S   E S S E S S E S S E S S
|---2-----2-----2-----2---|---1-----1-----1-----1---|---2-----2-----2-----2----|
|---4-----4-----4-----4---|---3-----3-----3-----3---|---4-----4-----4-----4----|
|---3-----3-----3-----3---|---3-----3-----3-----3---|---3-----3-----3-----3----|
|-------------------------|-------------------------|--------------------------|
|-------------------------|-------------------------|--------------------------|
|-------------------------|-------------------------|--------------------------|


  H           H             W                         W
|-4-----------7-----------|-6-----------------------|-4------------------------|
|-6-----------------------|-7-----------------------|-6------------------------|
|-7-----------------------|-8-----------------------|-7------------------------|
|-------------------------|-------------------------|--------------------------|
|-------------------------|-------------------------|--------------------------|
|-------------------------|-------------------------|--------------------------|
|
| E S S Q     H             E E   E E   E E   E S S   E E   E E   E E   E S S
|-------------------------|-------------------------|--------------------------|
|-------------------------|-------------------------|--------------------------|
|-4-3---------------------|---3---2-3---------------|---3---2-3----------------|
|-------------6-----------|-------------3-4---0-1---|-------------3-4---0-1----|
|-------------------------|-------------------------|---1----------------------|
|-7-6---------4-----------|---6---5-6---1-2---------|-------5-6---1-2----------|
|
| E S S E S S E S S E S S   E S S E S S E S S E S S   E S S E S S E S S E S S
|---1-----1-----1-----1---|---2-----2-----2-----2---|---1-----1-----1-----1----|
|---3-----3-----3-----3---|---4-----4-----4-----4---|---3-----3-----3-----3----|
|---3-----3-----3-----3---|---3-----3-----3-----3---|---3-----3-----3-----3----|
|-------------------------|-------------------------|--------------------------|
|-------------------------|-------------------------|--------------------------|
|-------------------------|-------------------------|--------------------------|


  W                   H       H              W
|-6----------------|-11-------7-----------|--6--------------------|
|-7----------------|--9-------------------|--7--------------------|
|-8----------------|-10-------------------|--8--------------------|
|------------------|-12-------------------|-----------------------|
|------------------|----------------------|-----------------------|
|------------------|----------------------|-----------------------|
|
| Gtr II
| W                   Q   E E E E +S  S E   +S  S E Q   H
|------------------|--4---4-4-6-4-(4)---2-|-(2)-------------------|
|------------------|--6---6-6-7-6-(6)---4-|-(4)-------------------|
|------------------|----------------------|-----------------------|
|------------------|----------------------|-----------------------|
|------------------|----------------------|-----------------------|
|------------------|----------------------|-----------------------|
|
| Gtr III
| Q  E E E S S E E    E E Q   H              E    E E E E E E S S
|------------------|----------------------|-----------------------|
|------------------|----------------------|-----------------------|
|-3--2-3-4-3-----3-|--4-3-----------------|-------3-2-3-----------|
|------------------|----------------------|-------------3-4-0-1---|
|-1----------------|----------------------|-----------------------|
|----5-6-7-6-----6-|--7-6-----------------|-------6-5-6-1-2-------|


  W                         W                          H           H
|-------------------------|-6-----------------------|-11-----------7--------|
|-6-----------------------|-4-----------------------|--9--------------------|
|-7-----------------------|-------------------------|-10--------------------|
|-------------------------|-------------------------|-12--------------------|
|-------------------------|-------------------------|-----------------------|
|-------------------------|-------------------------|-----------------------|
|
| Gtr III
| E E   E E   E E   E S S   Q     E E   E S S E E      E S S Q     H
|-------------------------|-------------------------|-----------------------|
|-------------------------|-------------------------|-----------------------|
|---3---2-3---------------|-3-----2-3---4-3-----3---|--4-3------------------|
|-------------3-4---0-1---|-------------------------|-----------------------|
|---1---------------------|-1-----------------------|-----------------------|
|-------5-6---1-2---------|-------5-6---7-6-----6---|--7-6------------------|
|
| Gtr IV
| E S S E S S E S S E S S   E S S E S S E S S E S S    E S S E S S E S S Q
|---1-----1-----1-----1---|---2-----2-----2-----2---|----1-----1-----1------|
|---3-----3-----3-----3---|---4-----4-----4-----4---|----3-----3-----3------|
|---3-----3-----3-----3---|---3-----3-----3-----3---|----3-----3-----3------|
|-------------------------|-------------------------|-----------------------|
|-------------------------|-------------------------|-----------------------|
|-------------------------|-------------------------|-----------------------|


  W                W
|-6-------------|--4----------------------|
|-8-------------|-------------------------|
|-8-------------|-------------------------|
|---------------|-------------------------|
|---------------|-------------------------|
|---------------|--4----------------------|
|
| Gtr II
| W                W
|---------------|-------------------------|
|---------------|-------------------------|
|---------------|-------------------------|
|---------------|-------------------------|
|---------------|-------------------------|
|---------------|-------------------------|
|
| Gtr V
| H    +Q   E E   +E  E +E  E +E  E +E  E
|---------------|-------------------------|
|-4----(4)----2-|-(2)---------------------|
|-----------3---|-----4-(4)-3-(3)-1-(1)---|
|---------------|-------------------------|
|---------------|-------------------------|
|---------------|-------------------------|


  W                    H         H
|-6-----------------|-----------------------|
|-7-----------------|--6--------------------|
|-------------------|--7--------------------|
|-------------------|-----------------------|
|-------------------|-----------------------|
|-------------------|--6---------4----------|
|
| W                    E  E E E  E  E +E  E
|-------------------|--1--1-1-1--2--1-(1)---|
|-------------------|---------------------4-|
|-------------------|-----------------------|
|-------------------|-----------------------|
|-------------------|-----------------------|
|-------------------|-----------------------|
|
| E E E E E E +E  E   +Q    E E +E  E +E  E
|-------------------|-----------------------|
|-------------------|-----------------------|
|-------------------|-----------------------|
|-4-4-4---4-6-(6)-8-|-(8)---8-6-(6)-4-(4)---|
|-------6-----------|-----------------------|
|-------------------|-----------------------|


   W                  W
|--3---------------|--4------------------------|
|--4---------------|---------------------------|
|------------------|---------------------------|
|------------------|---------------------------|
|------------------|---------------------------|
|------------------|--1------------------------|
|
| +Q   Q   H          W
|------------------|---------------------------|
|-(4)--------------|---------------------------|
|------------------|---------------------------|
|------------------|---------------------------|
|------------------|---------------------------|
|------------------|---------------------------|
|
|  H      +Q   E E   +E  E +E  E +E  E +E  S S
|------------------|---------------------------|
|--4------(4)----2-|-(2)-----------------------|
|--------------3---|-----4-(4)-3-(3)-1-(1)-----|
|------------------|-------------------------1-|
|------------------|---------------------------|
|------------------|---------------------------|


   H.             Q         W
|------------------------|--------|
|-11---------------------|--6-----|
|-11---------------------|--------|
|------------------------|--------|
|------------------------|--------|
|-----------------4------|--6-----|
|
|  W                        W
|------------------------|--------|
|------------------------|--------|
|------------------------|--------|
|------------------------|--------|
|------------------------|--------|
|------------------------|--------|
|
|  E. S E. S E E +S  S E   +W
|------------------------|--------|
|------------------------|--------|
|------------------------|--------|
|--4----4----4-6-(6)---8-|-(8)----|
|-----6----6-------------|--------|
|------------------------|--------|


  W                       W                          W
|-----------------------|-------------------------|--------------------------|
|-----------------------|-7-----------------------|--9-----------------------|
|-7---------------------|-8-----------------------|-10-----------------------|
|-----------------------|-------------------------|-12-----------------------|
|-----------------------|-------------------------|--------------------------|
|-----------------------|-------------------------|--------------------------|
|
| E. S E. S E E +S  S E   Q     Q     H              W
|-----------------------|-------------------------|--------------------------|
|-----------------------|-4-----------------------|--------------------------|
|-3--3-2--3-4-3-(3)-----|-------------------------|--------------------------|
|-----------------------|-------------------------|--------------------------|
|-----------------------|-------------------------|--------------------------|
|-----------------------|-------------------------|--------------------------|
|
| Gtr IV
| W                       E S S E S S E S S E S S    E S S E S S E S S E S S
|-----------------------|---2-----2-----2-----2---|----1-----1-----1-----1---|
|-----------------------|---4-----4-----4-----4---|----3-----3-----3-----3---|
|-----------------------|---3-----3-----3-----3---|----3-----3-----3-----3---|
|-----------------------|-------------------------|--------------------------|
|-----------------------|-------------------------|--------------------------|
|-----------------------|-------------------------|--------------------------|


   W
|--------------------------|
|-11-----------------------|
|-11-----------------------|
|-13-----------------------|
|--------------------------|
|--------------------------|
|
| Gtr III
|  Q     E E   E S S E E
|--------------------------|
|--------------------------|
|--3-----2-3---4-3-----3---|
|--------------------------|
|--1-----------------------|
|--------5-6---7-6-----6---|
|
|  E S S E S S E S S E S S
|----2-----2-----2-----2---|
|----4-----4-----4-----4---|
|----3-----3-----3-----3---|
|--------------------------|
|--------------------------|
|--------------------------|


   H           H             W
|--------------7-----------|-6------------------------|
|--9-----------------------|-7------------------------|
|-10-----------------------|-8------------------------|
|-12-----------------------|--------------------------|
|--------------------------|--------------------------|
|--------------------------|--------------------------|
|
|  E S S Q     H             E E   E E   E E   E S S
|--------------------------|--------------------------|
|--------------------------|--------------------------|
|--4-3---------------------|---3---2-3----------------|
|--------------------------|-------------3-4---0-1----|
|--------------------------|--------------------------|
|--7-6---------------------|---6---5-6---1-2----------|
|
|  E S S E S S E S S E S S   E S S E S S E S S E S S
|----1-----1-----1-----1---|---2-----2-----2-----2----|
|----3-----3-----3-----3---|---4-----4-----4-----4----|
|----3-----3-----3-----3---|---3-----3-----3-----3----|
|--------------------------|--------------------------|
|--------------------------|--------------------------|
|--------------------------|--------------------------|


  W                         W                         H           H
|-4-----------------------|-6-----------------------|-4-----------7------------|
|-6-----------------------|-7-----------------------|-6------------------------|
|-7-----------------------|-8-----------------------|-7------------------------|
|-------------------------|-------------------------|--------------------------|
|-------------------------|-------------------------|--------------------------|
|-------------------------|-------------------------|--------------------------|
|
| E E   E E   E E   E S S   Q     E E   E S S E E     E S S Q     H
|-------------------------|-------------------------|--------------------------|
|-------------------------|-------------------------|--------------------------|
|---3---2-3---------------|-3-----2-3---4-3-----3---|-4-3----------------------|
|-------------3-4---0-1---|-------------------------|-------------6------------|
|---1---------------------|-1-----------------------|--------------------------|
|-------5-6---1-2---------|-------5-6---7-6-----6---|-7-6---------4------------|
|
| E S S E S S E S S E S S   E S S E S S E S S E S S   E S S E S S E S S E S S
|---1-----1-----1-----1---|---2-----2-----2-----2---|---1-----1-----1-----1----|
|---3-----3-----3-----3---|---4-----4-----4-----4---|---3-----3-----3-----3----|
|---3-----3-----3-----3---|---3-----3-----3-----3---|---3-----3-----3-----3----|
|-------------------------|-------------------------|--------------------------|
|-------------------------|-------------------------|--------------------------|
|-------------------------|-------------------------|--------------------------|


  W                        W                      W
|-6---------------------|--4--------------------|-6--------------------|
|-7---------------------|--6--------------------|-7--------------------|
|-8---------------------|--7--------------------|-8--------------------|
|-----------------------|-----------------------|----------------------|
|-----------------------|-----------------------|----------------------|
|-----------------------|-----------------------|----------------------|
|
| Gtr II
| Q   E E +E  E +E  E     +E  E +E  E Q   Q       Q  E E +E  E   +E  E
|-2-----2-(2)-------1---|-(1)-1-(1)-2-6---4-----|-2----2-(2)---------1-|
|-4---4-4-(4)-4-(4)-3---|-(3)-3-(3)-4-7---6-----|-4--4-4-(4)-4---(4)-3-|
|-----3-------3-(3)-----|-----------------------|----3-------3---(3)---|
|-----------------------|-----------------------|----------------------|
|-----------------------|-----------------------|----------------------|
|-----------------------|-----------------------|----------------------|
|
| Gtr III
| E E E E  E  E  E  S S    E  E  E  E E E E S S   Q  E E  E  S S  E  E
|-----------------------|-----------------------|----------------------|
|-----------------------|-----------------------|----------------------|
|---3-2-3---------------|-----3--2--3-----------|-3--2-3--4--3-------3-|
|----------3--4--0--1---|-------------3-4-0-1---|----------------------|
|-----------------------|-----1-----------------|-1--------------------|
|---6-5-6--1--2---------|--------5--6-1-2-------|----5-6--7--6-------6-|


   H          H      W                        W
|-11----------7----|-6---------------------|-----------------------|
|--9---------------|-7---------------------|--6--------------------|
|-10---------------|-8---------------------|--7--------------------|
|-12---------------|-----------------------|-----------------------|
|------------------|-----------------------|-----------------------|
|------------------|-----------------------|-----------------------|
|
| +Q.       E H      Q   E E +E  E +E  E     +E  E +E  E Q   Q
|-(1)--------------|-2-----2-(2)-------1---|-(1)-1-(1)-2-6---4-----|
|-(3)--------------|-4---4-4-(4)-4-(4)-3---|-(3)-3-(3)-4-7---6-----|
|------------------|-----3-------3-(3)-----|-----------------------|
|------------------|-----------------------|-----------------------|
|------------------|-----------------------|-----------------------|
|------------------|-----------------------|-----------------------|
|
|  E  S S Q   H      E E E E  E  E  E  S S    E  E  E  E E E E S S
|------------------|-----------------------|-----------------------|
|------------------|-----------------------|-----------------------|
|--4--3------------|---3-2-3---------------|-----3--2--3-----------|
|------------------|----------3--4--0--1---|-------------3-4-0-1---|
|------------------|-----------------------|-----1-----------------|
|--7--6------------|---6-5-6--1--2---------|--------5--6-1-2-------|


  W                       H          H      W
|-6--------------------|-11----------7----|-6---------------------|
|-4--------------------|--9---------------|-7---------------------|
|----------------------|-10---------------|-8---------------------|
|----------------------|-12---------------|-----------------------|
|----------------------|------------------|-----------------------|
|----------------------|------------------|-----------------------|
|
| Q  E E +E  E   +E  E   +Q.       E H      Q   E E +E  E +E  E
|-2----2-(2)---------1-|-(1)--------------|-2-----2-(2)-------1---|
|-4--4-4-(4)-4---(4)-3-|-(3)--------------|-4---4-4-(4)-4-(4)-3---|
|----3-------3---(3)---|------------------|-----3-------3-(3)-----|
|----------------------|------------------|-----------------------|
|----------------------|------------------|-----------------------|
|----------------------|------------------|-----------------------|
|
| Q  E E  E  S S  E  E    E  S S Q   H      E E E E  E  E  E  S S
|----------------------|------------------|-----------------------|
|----------------------|------------------|-----------------------|
|-3--2-3--4--3-------3-|--4--3------------|---3-2-3---------------|
|----------------------|-------------6----|----------3--4--0--1---|
|-1--------------------|------------------|-----------------------|
|----5-6--7--6-------6-|--7--6-------4----|---6-5-6--1--2---------|


   W                      W                       H          H
|--4--------------------|-6--------------------|-11----------7----|
|--6--------------------|-7--------------------|--9---------------|
|--7--------------------|-8--------------------|-10---------------|
|-----------------------|----------------------|-12---------------|
|-----------------------|----------------------|------------------|
|-----------------------|----------------------|------------------|
|
| +E  E +E  E Q   Q       Q  E E +E  E   +E  E   +Q.       E H
|-(1)-1-(1)-2-6---4-----|-2----2-(2)---------1-|-(1)--------------|
|-(3)-3-(3)-4-7---6-----|-4--4-4-(4)-4---(4)-3-|-(3)--------------|
|-----------------------|----3-------3---(3)---|------------------|
|-----------------------|----------------------|------------------|
|-----------------------|----------------------|------------------|
|-----------------------|----------------------|------------------|
|
|  E  E  E  E E E E S S   Q  E E  E  S S  E  E    E  S S Q   H
|-----------------------|----------------------|------------------|
|-----------------------|----------------------|------------------|
|-----3--2--3-----------|-3--2-3--4--3-------3-|--4--3------------|
|-------------3-4-0-1---|----------------------|------------------|
|-----1-----------------|-1--------------------|------------------|
|--------5--6-1-2-------|----5-6--7--6-------6-|--7--6------------|


  W                        W                      W
|-6---------------------|--4--------------------|-6--------------------|
|-7---------------------|--6--------------------|-7--------------------|
|-8---------------------|--7--------------------|-8--------------------|
|-----------------------|-----------------------|----------------------|
|-----------------------|-----------------------|----------------------|
|-----------------------|-----------------------|----------------------|
|
| Q   E E +E  E +E  E     +E  E +E  E Q   Q       Q  E E +E  E   +E  E
|-2-----2-(2)-------1---|-(1)-1-(1)-2-6---4-----|-2----2-(2)---------1-|
|-4---4-4-(4)-4-(4)-3---|-(3)-3-(3)-4-7---6-----|-4--4-4-(4)-4---(4)-3-|
|-----3-------3-(3)-----|-----------------------|----3-------3---(3)---|
|-----------------------|-----------------------|----------------------|
|-----------------------|-----------------------|----------------------|
|-----------------------|-----------------------|----------------------|
|
| E E E E  E  E  E  S S    E  E  E  E E E E S S   Q  E E  E  S S  E  E
|-----------------------|-----------------------|----------------------|
|-----------------------|-----------------------|----------------------|
|---3-2-3---------------|-----3--2--3-----------|-3--2-3--4--3-------3-|
|----------3--4--0--1---|-------------3-4-0-1---|----------------------|
|-----------------------|-----1-----------------|-1--------------------|
|---6-5-6--1--2---------|--------5--6-1-2-------|----5-6--7--6-------6-|


   H          H      E  E  E  E E  S S  E    E   Q   E E H
|-11----------7----|---16--------------------6-|--------------*|
|--9---------------|---------18----------------|--------------*|
|-10---------------|---13---------19---------3-|----20--------*|
|-12---------------|-6-------15-0--------------|--------------*|
|------------------|--------------17----1------|--------------*|
|------------------|------13-------------------|----23--------*|
|
| +Q.       E H      Q     E  E E  E   +S  S E   W
|-(1)--------------|-4-----4--4-6--4---(4)---2-|--------------*|
|-(3)--------------|-6-----6--6-7--6---(6)---4-|--------------*|
|------------------|---------------------------|--------------*|
|------------------|---------------------------|--------------*|
|------------------|---------------------------|--------------*|
|------------------|---------------------------|--------------*|
|
|  E  S S Q   H      W                           W
|------------------|---------------------------|--------------*|
|------------------|---------------------------|--------------*|
|--4--3------------|---------------------------|--------------*|
|------------------|---------------------------|--------------*|
|------------------|---------------------------|--------------*|
|--7--6------------|---------------------------|--------------*|


Duration Legend
---------------
W - whole; H - half; Q - quarter; E - 8th; S - 16th; T - 32nd; X - 64th; a - acciaccatura
+ - note tied to previous; . - note dotted; .. - note double dotted
Uncapitalized letters represent notes that are staccato (1/2 duration)
Irregular groupings are notated above the duration line
Duration letters will always appear directly above the note/fret number it represents the
duration for.  Duration letters with no fret number below them represent rests.  Multi-
bar rests are notated in the form Wxn, where n is the number of bars to rest for.  Low
melody durations appear below the staff

Tablature Legend
----------------
 h   - hammer-on
 p   - pull-off
 b   - bend
 pb  - pre-bend
 r   - bend release (if no number after the r, then release immediately)
 /\  - slide into or out of (from/to "nowhere")
 s   - legato slide
 S   - shift slide
  - natural harmonic
[n]  - artificial harmonic
n(n) - tapped harmonic
 ~   - vibrato
 tr  - trill
 T   - tap
 TP  - trem. picking
 PM  - palm muting
\n/  - tremolo bar dip; n = amount to dip
 \n  - tremolo bar down
 n/  - tremolo bar up
/n\  - tremolo bar inverted dip
 =   - hold bend; also acts as connecting device for hammers/pulls
 <>  - volume swell (louder/softer)
 x   - on rhythm slash represents muted slash
 o   - on rhythm slash represents single note slash

Misc Legend
-----------
 |  - bar
||  - double bar
||o - repeat start
o|| - repeat end
*|  - double bar (ending)
 :  - bar (freetime)
 $  - Segno
 &  - Coda
Tempo markers -  = BPM(8/16=s8/s16), where s8 = swing 8ths, s16 = swing 16ths
Добавлено: 25.04.2012
Другие материалы по этой песне:

Страница создана 25.04.2012
http://primanota.ru/backstreet-boys/weve-got-it-going-on-chords.htm
Привет, Гость.
Предлагаем пройти революционный курс по гитаре.
Подарок от PrimaNota.Ru, забирай!