PrimaNota.ru - самый крупный в мире бесплатный архив песенных текстов, аккордов, табулатур и нот


Backseat - Kiss A Lot Of Frogs - таба, видео

Регистрация Запомнить меня
Войти через:  Facebook Google Twitter Vk Yandex Mail.ru

Backseat - Kiss A Lot Of Frogs - таба, видео

Печатать
Просмотров: 142
Уроки эстрадного вокала в Санкт-Петербурге
Artist: Backseat.
Song: Kiss A Lot Of Frogs.
Album: Extra Matured.
Year: 2013.
   
Chords:

   A     E     D    F#m   Bm     G
|--0--|--0--|--2--|--2--|--2--|--3--|
|--2--|--0--|--3--|--2--|--3--|--3--|
|--2--|--1--|--2--|--2--|--4--|--4--|
|--2--|--2--|--0--|--4--|--4--|--5--|
|--0--|--2--|-----|--4--|--2--|--5--|
|-----|--0--|-----|--2--|-----|--3--|

Intro:

A - E - D - E x4.

Lead Guitar Riff:
e---------------------------------------|
B---------------------------------------|
G---------------------------------------|
D---------------------------------------| x2.
A-----4-2-4--0--0-2------4-2-2-4-4b-0-7-|
E--s5----------------s5-----------------|

Verse 1:
F#m                E
THE FIRST LIGHT OF DAWN
       F#m                E
I WOKE UP - GAZING AT HER
D          A
POURING MY COFFEE - I THOUGHT OF HOW TO
E
MAKE HER STAY RIGHT WHERE SHE WAS
F#m                 E
THROUGH THOSE LASHES OF SILK
F#m               E
HER BEAMING GREEN EYES
D              A
ASKED WHAT WAS ON MY MIND
           E
N'RIGHT AT HAND I COULN'T COME UP WITH NO LIES - SHE SAID

Pre-Chorus:
D
I KNOW WHAT YOU'RE THINKING:
            A
"HOW MANY TIMES WITH WHO AND WHERE"
    Bm                 G
BUT NOTHING COMES FROM NOTHING BABE
              E
AND I'VE BEEN SEARCHING EVERYWHERE

YOU SEE

Chorus:
  D
A GIRL HAS TO KISS A LOT OF FROGS
    A
TO FINALLY MEET THE PRINCE
G                      E
SHE TOLD ME IN THIS HUSKY VOICE
             A
THAT MADE ME WONDER WHICH I WAS
  D
A GIRL HAS TO KISS A LOT OF FROGS
    F#m
WHO LOOSE WHEN THE LAST ONE WINS
E
NO ONE EXCITED ME LIKE THIS LADY DOES

Interlude:

A - E - D - E x1.

Lead Guitar Riff:
e-------------------|
B-------------------|
G-------------------|
D-------------------| x1.
A-----4-2-4--0--0-2-|
E--s5---------------|

Verse 2:
F#m          E
TALKING ALL DAY
F#m                    E
I GOT TO KNOW HER REAL WELL
D         A
SEEKING ADVENTURE SHE'D SEEN A LOT
         E
ON THE ROAD FROM HEAVEN TO HELL
F#m            E
BUT THOSE BEAMING GREEN EYES
F#m          E
THAT CHANGES WITH THE LIGHT
D                       A
LOOKED RIGHT THROUGH ME MAKING ME SHY
        E
AND HER EVERY GUESS 'BOUT ME WAS RIGHT

SHE SAID:
D
I SEE THAT I'M COMING ACROSS
              A
AND YOU ARE BEGINNING TO UNDERSTAND
     Bm                  G
THAT NOTHING COMES FROM NOTHING BABE
         E
AND THAT EVEN IN THE PROMISED LAND

IT'S LIKE

Chorus:
  D
A GIRL HAS TO KISS A LOT OF FROGS
    A
TO FINALLY MEET THE PRINCE
G                      E
SHE TOLD ME IN THIS HUSKY VOICE
             A
THAT MADE ME WONDER WHICH I WAS
  D
A GIRL HAS TO KISS A LOT OF FROGS
    F#m
WHO LOOSE WHEN THE LAST ONE WINS
E
NO ONE EXCITED ME LIKE THIS LADY DOES

Interlude:

Lead Guitar Riff:
|-----------------------------------|
|-----------------------------------|
|-----------------------------------|
|-----------------------------------| x1.
|-----4-2-2-4-----5-4-2-0-4-2-0-----|
|--s5---------------------------2s3-|

Bridge:
G
DRESSED TO GO IN THE DOORWAY
          D
SHE SEAMS READY FOR THE WORLD OUT THERE
            C                    G
I'M JUST TOO WEEK TO TELL HER THE WAY I FEEL
           D                      E
AND WHEN WE HUGED SHE PROMISED TO TAKE CARE

KNOWING THAT

Chorus:
  D
A GIRL HAS TO KISS A LOT OF FROGS
    A
TO FINALLY MEET THE PRINCE
G                      E
SHE TOLD ME IN THIS HUSKY VOICE
             A
THAT MADE ME WONDER WHICH I WAS
  D
A GIRL HAS TO KISS A LOT OF FROGS
    F#m
WHO LOOSE WHEN THE LAST ONE WINS
E
NO ONE EXCITED ME LIKE THIS LADY DOES

Outro:

A - E - D - E x4.

Lead Guitar Outro Riff:
e----------------------------------------------------|
B----------------------------------------------------|
G----------------------------------------------------|
D----------------------------------------------------| x2.
A-----4-2-4--0--0-2------4-2-2-4---5-4-2-0-4-2-0-----|
E--s5----------------s5--------------------------3s5-|

End on A

Comments, requets, correction or answers sent to:
Contact: Kenni-B@hotmail.com

Lyrics found at:
http://www.ivanpedersen.com/nyt%20look/UNDERSIDER/BACKSEAT,HITHOME/TEKST,kissalotoffrogs.htm
Добавлено: 02.08.2015
Другие материалы по этой песне:
  • Аккорды и текст

Страница создана 02.08.2015
http://primanota.ru/backseat/kiss-a-lot-of-frogs-chords.htm
Привет, Гость.
Предлагаем пройти революционный курс по гитаре.
Подарок от PrimaNota.Ru, забирай!