PrimaNota.ru - самый крупный в мире бесплатный архив песенных текстов, аккордов, табулатур и нот


Bachman Turner Overdrive - Shes A Devil - аккорды и текст, видео

Регистрация Запомнить меня
Войти через:  Facebook Google Twitter Vk Yandex Mail.ru

Bachman Turner Overdrive - Shes A Devil - аккорды и текст, видео

Печатать
Просмотров: 45
Shes A Devil
Bachman Turner Overdrive
SONG:   SHE'S A DEVIL
ARTIST: BACHMAN-TURNER OVERDRIVE
TAB BY: DON CZARSKI
EMAIL:  GUITARZAN7@HOTMAIL.COM

              SHE'S A DEVIL
        BACHMAN-TURNER OVERDRIVE


INTRO:  (USE HARMONICS)
  
    G       D       A
E ---------------------------
B --------------------8-10---
G ------------9-7---7--------
D ----5-7---7----------------
A --5------------------------
E ---------------------------

THEN:
D  A    D  A    D  A    D  A
  

VERSE:
          D        A                 D  A 
You're invited to join the procession
          D           A              D  A
There is someone I'd like you to meet
      D             A                D  A
She looks like she might be for hire
         D              A                D  A
But you won't find her out in the street


CHORUS:
     D           A            G  A
Her hair is the color of fire
         D             A              G  A
As she stands in the night beside me
        D         A           G       A
Could this be my mind, am I dreaming
    D       A             G  A
Or maybe I got to believe
       
      ** =============== **

         D    A G G G G G A      
She's a devil, 
       D      A G G G G G A
She's desire
         D    A G G G G G A
She's an angel, 
        D     A G G G G E
I'm on fire

      ** =============== **

     (FILL) - GUITAR DOUBLING BASS

  NOTE: THIS CAN BE PLAYED INSTEAD OF THE 
         CHORDS ABOVE FROM "She's a devil"      
      
"She's a devil"                   ONLY           
"She's desire"                 Played last
"She's an angel"               time after
"I'm on fire"                 "I'm on fire"
                          
 E ----------|----------------|-------------|
 B ----------|----------------|-------------|
 G ----------|----------------|-------------|
 D ----------|--------3-------|--------3-2--|
 A ------3-5-|------3---5-3---|------3------|
 E --3-5-----|-3-5----------3-|--3-5--------|


D A   D A   D A   D A


VERSE:
   D           A                       D  A
I found in my life there were others
    D         A                  D  A
But no one so equal it seems
          D           A                D  A
And you stand at the edge of my heaven
         D          A            D  A  
But her fingertips pulsing to me


CHORUS:
     D           A           G  A
Her hair is the color of fire
         D             A              G  A
As she stands in the night beside me
        D         A           G       A
Could this be my mind, am I dreaming
    D       A                G  A
Or maybe I got to believe

         D    A G G G G G A      
She's a devil, 
       D      A G G G G G A
she's desire
         D    A G G G G G A
She's an angel, 
        D     A G G G G E
I'm on fire


INSTRUMENTAL:
D A   D A   D A   D A
 *SOLO BEGINS HERE*
D A   D A   D A   D A
D A   D A   D A   D A

*SOLO*:

  GUITAR 1:
E ------|---------------10----------------------------|
B ---10-|---7/10--10/12----12-10------------10--------|
G ------|-----------------------------7-7/9-----9\7---|
D -7----|-------------------------7/9-----------------|
A ------|---------------------------------------------|
E ------|---------------------------------------------|

** AT THIS POINT BOTH GUITARS PLAY SIMULTANEOUSLY **

GUITAR 1:

E ----17--15-14-15-14----14-17---17-22-17--------|
B --------------------15-------------------15----|
G -14--------------------------------------------|
D -----------------------------------------------|
A -----------------------------------------------|
E -----------------------------------------------|

GUITAR 2:
                                               
E -----------15p14-14-17-15-14----------14-------|
B -----------------------------15----15----15----|
G --------------------------------14----------14-|
D -----------------------------------------------|
A -----------------------------------------------|
E -----------------------------------------------|


D  A  G  A
D  A  G  A
D  A  G  A
D  A  G  A


CHORUS:
         D    A G G G G G A      
She's a devil, 
       D      A G G G G G A
She's desire
         D    A G G G G G A
She's an angel, 
        D     A G G G G E
I'm on fire


D A   D A   D A   D A


VERSE:
          D        A                 D  A 
You're invited to join the procession
          D           A              D  A
There is someone I'd like you to meet
      D             A                D  A
She looks like she might be for hire
         D              A                D  A
But you won't find her out in the street


CHORUS:
     D           A            G  A
Her hair is the color of fire
         D             A              G  A
As she stands in the night beside me
        D         A           G       A
Could this be my mind, am I dreaming
    D       A             G  A
Or maybe I got to believe


OUTRO:
         D    A G G G G G A      
She's a devil, 
       D      A G G G G G A
She's desire
         D    A G G G G G A
She's an angel, 
        D     A G G G G E
I'm on fire


         D    A G G G G G A      
She's a devil, 
       D      A G G G G G A
She's desire
         D    A G G G G G A
She's an angel, 
        D     A G G G G E
I'm on fire

 
          D   A G G G G G A      
She's a devil, 
       D      A G G G G G A
She's desire
         D    A G G G G G A
She's an angel, 
        D     A G G G G E
I'm on fire





Добавлено: 08.12.2015
Вам также может быть интересно:
Другие материалы по этой песне:
  • Аккорды и текст

Страница создана 08.12.2015
http://primanota.ru/bachman-turner-overdrive/shes-a-devil-chords.htm
Привет, Гость.
Предлагаем пройти революционный курс по гитаре.
Подарок от PrimaNota.Ru, забирай!