PrimaNota.ru - самый крупный в мире бесплатный архив песенных текстов, аккордов, табулатур и нот


Babyshambles - Lost Art Of Murdr - таба, видео

Регистрация Запомнить меня
Войти через:  Facebook Google Twitter Vk Yandex Mail.ru

Babyshambles - Lost Art Of Murdr - таба, видео

Печатать
Просмотров: 121
-----------------------------------------------------------------|
--------------------10-13----------------------------------------|
-------------9h10p9----------9-10-9-9h10p9---------9-9h10p9------|
------7-8h10---------------8--------------8---7-8----------------|
--7h8---------------------------------------7--------------------|
-----------------------------------------------------------------|



8/10/13-12\10\8h7-----|
------------------7---|
----------------------|
----------------------|
----------------------|
----------------------|
Добавлено: 13.07.2012
Другие материалы по этой песне:
  • Аккорды и текст

Страница создана 13.07.2012
http://primanota.ru/babyshambles/lost-art-of-murdr-chords.htm
Привет, Гость.
Предлагаем пройти революционный курс по гитаре.
Подарок от PrimaNota.Ru, забирай!