PrimaNota.ru - самый крупный в мире бесплатный архив песенных текстов, аккордов, табулатур и нот


Baby Godzilla - Powerboat Disaster - таба, бас-таба, видео

Регистрация Запомнить меня
Войти через:  Facebook Google Twitter Vk Yandex Mail.ru

Baby Godzilla - Powerboat Disaster - таба, бас-таба, видео

Печатать
Просмотров: 154
-------------------------------------------------------------------------------
                             POWERBOAT DISASTER - Baby Godzilla
-------------------------------------------------------------------------------
Tabbed by: PhineasPhish
E-mail: phinieasphish@gmail.com

Tuning: Drop D; DADGBE

Intro Riff:

POWAAAAAAAAAAAAAAAAAAAAHHHHHHHH
e|---------------------------------------------------------------------------|
B|---------------------------------------------------------------------------|
G|-------------7-------7-------7--------------7-------7-------7--------------|
D|-0-0-0-0-0-0-7---0-0-7---0-0-7--0-0-0-0-0-0-7---0-0-7---0-0-7--------------|
A|-0-0-0-0-0-0-5---0-0-5---0-0-5--0-0-0-0-0-0-5---0-0-5---0-0-5--------------|
D|-0-0-0-0-0-0-----0-0-----0-0----0-0-0-0-0-0-----0-0-----0-0----------------|
 pm. . . . . .     . .     . .    . . . . . .     . .     . . 

e|---------------------------------------------------------------------------|
B|---------------------------------------------------------------------------|
G|-------------5-------5-------5--------------5-------5------5b------5b------|
D|-0-0-0-0-0-0-4---0-0-4---0-0-4--0-0-0-0-0-0-4---0-0-4---0-04b-0-0-04b-0-0-0|
A|-0-0-0-0-0-0-3---0-0-3---0-0-3--0-0-0-0-0-0-3---0-0-3---0-03b-0-0-03b-0-0-0|
D|-0-0-0-0-0-0-----0-0-----0-0----0-0-0-0-0-0-----0-0-----0-0---0-0-0---0-0-0|
 pm. . . . . .     . .     . .    . . . . . .     . .     . .   . . .   . . .

e|----------------|
B|----------------|
G|----------------|
D|-6-5-0-3-0-5-0--|  
A|-6-5-0-3-0-5-0--|   'YAH!
D|-6-5-0-3-0-5-0--|





Chorus:
e|------------------------------------|
B|------------------------------------|
G|---------------------5--5-7--5-7--7-|
D|-0--0-3--3-5--5-7--7-5--5-7--5-7--7-|
A|-0--0-3--3-5--5-7--7-3--3-5--3-5--5-| repeat x4
D|-0--0-3--3-5--5-7--7----------------|

and on the last time play
e|---------------------------------------------------------------------------|
B|---------------------------------------------------------------------------|
G|---------------------5b-------5b-------------------------------------------|
D|-0--0-3--3-5--5-7--7-4b-0-0-0-4b-0-0-0--6-5-0-3-0-5-0----------------------|
A|-0--0-3--3-5--5-7--7-3b-0-0-0-3b-0-0-0--6-5-0-3-0-5-0----------------------|
D|-0--0-3--3-5--5-7--7----0-0-0----0-0-0--6-5-0-3-0-5-0----------------------|
                          . . .    . . . 




Post-Chorus:
e|---------------------------------------------------------------------------|
B|---------------------------------------------------------------------------|
G|---------------------------------------------------------------------------|
D|-6-5-0-3-0-5-6-5-0-3-0-5-6-5-0-3-0-5-6-5-0-3-0-5-6-5-0-3-0-5-6-5-0-3-0-5---|
A|-6-5-0-3-0-5-6-5-0-3-0-5-6-5-0-3-0-5-6-5-0-3-0-5-6-5-0-3-0-5-6-5-0-3-0-5---|
D|-6-5-0-3-0-5-6-5-0-3-0-5-6-5-0-3-0-5-6-5-0-3-0-5-6-5-0-3-0-5-6-5-0-3-0-5---|





Verse:
e|---------------------------------------------------------------------------|
B|---------------------------------------------------------------------------|
G|---------------------------------------------------------------------------|
D|-------------------------------------------------6-5-0-3-0-5-6-5-0-3-0-----|
A|-5-5-0-3-5-5-0-3-5-5-0-3-5-5-0-3-5-5-0-3-5-5-0-3-6-5-0-3-0-5-6-5-0-3-0-----|
D|-------------------------------------------------6-5-0-3-0-5-6-5-0-3-0-----|

e|---------------------------------------------------------------------------|
B|---------------------------------------------------------------------------|
G|---------------------------------------------------------------------------|
D|-------------------------------------------------6-5-0-3-0-5-6-5-0-3-0-----|
A|-5-5-0-3-5-5-0-3-5-5-0-3-5-5-0-3-5-5-0-3-5-5-0-3-6-5-0-3-0-5-6-5-0-3-0-----|
D|-------------------------------------------------6-5-0-3-0-5-6-5-0-3-0-----|
e|---------------------------------------------------------------------------|

e|---------------------------------------------------------------------------|
B|---------------------------------------------------------------------------|
G|---------------------------------------------------------------------------|
D|------------------------------6-5-0-3-0-5-6-5-0-3-0-5-6-5-0-3-0-5-6-5-0-3-0|
A|-3-3-3-4-5-5-5-3-3-3-4-5-5-5--6-5-0-3-0-5-6-5-0-3-0-5-6-5-0-3-0-5-6-5-0-3-0|
D|------------------------------6-5-0-3-0-5-6-5-0-3-0-5-6-5-0-3-0-5-6-5-0-3-0|

e|--------------------------------------------------------|
B|--------------------------------------------------------|
G|--5b-------5b-------------------------------------------|
D|--4b-0-0-0-4b-0-0-0--6-5-0-3-0-5-0----------------------|
A|--3b-0-0-0-3b-0-0-0--6-5-0-3-0-5-0----------------------|
D|-----0-0-0----0-0-0--6-5-0-3-0-5-0----------------------|
       . . .    . . .    

2nd Verse ends on this
e|---------------------------------------------------------------------------|
B|---------------------------------------------------------------------------|
G|------------------------------7------------5-------------------------------|
D|------------------------------7------------5-----------5-----------3-------|
A|-3-3-3-4-5-5-5-3-3-3-4-5-5-5--5------------3-----------5-----------3-------|
D|-------------------------------------------------------5-----------3-------|





Bridge:
following the banjo break
e|---------------------------------------------------------------------------|
B|---------------------------------------------------------------------------|
G|---------------------------------------------------------------------------|
D|-------0-0-3-0-0---------0-2h3p2h3p2h3-------0-0-3-0-0---------0-2h3p2h3p2-|
A|-0-0-3-----------0-0-0-3---------------0-0-3-----------0-0-0-3-------------|
D|-0-----------------0-------------------0-----------------0-----------------|
   . . .           . . . .               . . .           . . . .
e|---------------------------------------------------------------------------|
B|---------------------------------------------------------------------------|
G|---------------------------------------------------------------------------|
D|2h3p2h3p2h3p2h3p2h3p2h3p2h3p2h3p2h3p2h3p2h3--------------------------------|
A|---------------------------------------------------------------------------|
D|---------------------------------------------------------------------------|
at the end do this bit while gradually bending upwards

second section
e|---------------------------------------------------------------------------|
B|---------------------------------------------------------------------------|
G|-5---------5----------------5---------5------------------------------------|
D|-4-0-0-0-0-4-0-0-0-0-3-4--5-4-0-0-0-0-4-0-0-0-0-3-4--5---------------------|
A|-3-0-0-0-0-3-0-0-0-0-3-4--5-3-0-0-0-0-3-0-0-0-0-3-4--5---------------------|
D|---0-0-0-0---0-0-0-0-3-4--5---0-0-0-0---0-0-0-0-3-4--5---------------------|

last section
e|---------------------------------------------------------------------------|
B|-3-4-3-4-3-4-3-4-3-4-3-4-3-4-3-4-3-4---------------------------------------|
G|---------------------------------------------------------------------------|
D|-------------------------------------0-1-0-1-0-1-0-1-0-1-0-1-0-1-0-1-0-1---|
A|-------------------------------------0-1-0-1-0-1-0-1-0-1-0-1-0-1-0-1-0-1---|
D|-------------------------------------0-1-0-1-0-1-0-1-0-1-0-1-0-1-0-1-0-1---|
   . . . . . . . . . . . . . . . . . . . . . . . . . . . . . . . . . . . .
e|-----------------2---------------------------------------------------------|
B|-3-4-3-4-3-4-3-4---4-3-4-3-4-3-4-3-4---------------------------------------|
G|---------------------------------------------------------------------------|
D|-------------------------------------0-1-0-1-0-1-0-1-0-1-0-1-0-1-0-1-0-1---|
A|-------------------------------------0-1-0-1-0-1-0-1-0-1-0-1-0-1-0-1-0-1---|
D|-------------------------------------0-1-0-1-0-1-0-1-0-1-0-1-0-1-0-1-0-1---|
   . . . . . . . . . . . . . . . . . . . . . . . . . . . . . . . . . . . . 


Intro
Chorus
Post-Chorus
Verse
Intro Riff
Chorus
Post-Chorus
2nd Verse
Bridge
Intro Riff

Добавлено: 31.08.2014
Другие материалы по этой песне:
  • Аккорды и текст

Страница создана 31.08.2014
http://primanota.ru/baby-godzilla/powerboat-disaster-chords.htm
Привет, Гость.
Предлагаем пройти революционный курс по гитаре.
Подарок от PrimaNota.Ru, забирай!