PrimaNota.ru - самый крупный в мире бесплатный архив песенных текстов, аккордов, табулатур и нот


Baby Bash - Sugar Sugar - текст песни, таба, видео

Регистрация Запомнить меня
Войти через:  Facebook Google Twitter Vk Yandex Mail.ru

Baby Bash - Sugar Sugar - текст песни, таба, видео

Печатать
Просмотров: 474
Date: November 7, 2003

Artist: Baby Bash (Frankie J.)

Title: Suga Suga

Transcribed by: Eric Bergevin

E-mail address: eric.bergevin@rogers.com

 

 

Many people asking for this tab over the internet(including me),

so I tabbed it...well, the repeating guitar in the background

anyway :)

Not much else in the song.

 

Tuning : Standard

 

Here are two ways of playing the song. Second one is the "real" way.

They both sound exactly the same. Good luck!

 

h = hammer-on

p = pull-off

/ = slide

 

 

|--------------------------------|-------------------------------|

|---2---2h4p2--------------------|-------------------------------|

|-----3---------1---1---1h3p1----|-----------------3---3h5p3---1-|

|-----------------3---3-------3--|---3/5----5--------------------|

|1------------1------------------|4---/--6----6-1----1-------1---|

|--------------------------------|-------------------------------|

 

(2nd way)

|--------------------------------|-------------------------------|

|--------------------------------|-------------------------------|

|---6---6h8p6--------------------|-------------------------------|

|-----8---------6---6---6h8p6----|---3/5----5------8---8h10p8--6-|

|-----------------8---8-------8--|4---/--6----6------------------|

|6------------6------------------|--------------6----6--------6--|

 

Repeat this riff throughout the whole song.

 

E-mail: eric.bergevin@rogers.com

Thanks to Alistair Hill for getting me started in playing guitar!

 

     
Добавлено: 26.08.2013
Вам также может быть интересно:
Другие материалы по этой песне:
  • Аккорды и текст

Страница создана 10.06.2012
http://primanota.ru/baby-bash/sugar-sugar-chords.htm
Привет, Гость.
Предлагаем пройти революционный курс по гитаре.
Подарок от PrimaNota.Ru, забирай!