PrimaNota.ru - самый крупный в мире бесплатный архив песенных текстов, аккордов, табулатур и нот


Бабкин Сергей - Мир - аккорды и текст, видео

Регистрация Запомнить меня
Войти через:  Facebook Google Twitter Vk Yandex Mail.ru

Бабкин Сергей - Мир - аккорды и текст, видео

Печатать
Просмотров: 1776
Уроки эстрадного вокала в Санкт-Петербурге
Мир
Бабкин Сергей
From: mm][ maratmx@bk.ru

сергей Бабкин - Мир (неизданное)


1) -5------ 2) -3------ 3) -3------ 4) -5------
-5------    -3------    -3------    -5------
-5------    -3------    -5------    -7------
-7------    -5------    -5------    -7------
-7------    -5------    -3------    -5------
-5------    -3------    -0------    -0------

1     2       3          4
I Уди удилище, закинуть в будущее,

Только бы днище не прогнило.

Уди удилище, да коль быть ещё,

Чего-то ищем, что б насквозь проняло.


1         2       3     4
Припев: Мир под завязку, снимая маски,

Живые краски, да здравствуем мы.

Мир под заявязку, от Петра до Маски,

На сорванных связках поём псалмы.

Ааа-я-я-ла-ла-а...



II Уди удилище, как ясновидящий,

С чего-то взял, да выдумал вещие сны.

Уди удилище, кусай чудовище,

Смотреть на мир проще с другой стороны



Припев: Мир под завязку, снимая маски,

Живые краски, да здравствуем мы.

Мир под заявязку, от Петра до Маски,

На сорванных связках поём Ааа-я-я-ла-ла-а...


1               2
III Уди удилище, прощай пристанище,
3                  4
Хлеб наш насущный, наш тебе днес.

1) ------5- 2) ------3- 3) ------3- 4) ------5-
-----5--    -----3--    -----3--    -----5--
----5---    ----3---    ----5---    ----7---
---7----    ---5----    ---5----    ---7----
--7-----    --5-----    --3-----    --5-----
-5------    -3------    -0------    -0------
Добавлено: 30.07.2012
Другие материалы по этой песне:
  • Аккорды и текст

Страница создана 30.07.2012
http://primanota.ru/babkin-sergei/mir-chords.htm
Привет, Гость.
Предлагаем пройти революционный курс по гитаре.
Подарок от PrimaNota.Ru, забирай!