PrimaNota.ru - самый крупный в мире бесплатный архив песенных текстов, аккордов, табулатур и нот


Babes In Toyland - Swamp Pussy - текст песни, таба, видео

Регистрация Запомнить меня
Войти через:  Facebook Google Twitter Vk Yandex Mail.ru

Babes In Toyland - Swamp Pussy - текст песни, таба, видео

Печатать
Просмотров: 200
Уроки эстрадного вокала в Санкт-Петербурге
-------------------------------------------------------------------------------
			     Swamp Pussy by Babes In Toyland
-------------------------------------------------------------------------------

This may be the more difficult way to play this, but I've seen live videos of it and
Kat's hands don't move past the first three frets in the main riff, and it sounds more
correct this way versus if you were to play the power chords only. It's pretty simple to 
play, although speed might be an issue with the main riff since it's played in pretty 
quick succession.

Tabbed by: Scott H.


Tuning: Standard


Riff A (Intro/Main):

e|--------11-----------|
B|--------33-----------|
G|--------33--2--------|
D|--22-0--33--2--------|
A|--22-2--11--0--------|
E|--00-3---------------|


	Why do you make me feel so bad?
	Why do you bother to act so sad?
	Well, you created it
	You created it
	I believed it



Riff B (Chorus):

e|---------------------|
B|---------------------|
G|---------------------|
D|--2-0--5-xxxxxxx-----|
A|--2-2--5-xxxxxxx-----|
E|--0-3--3-xxxxxxx-----|


	Cease to exist
	Cease to exist


Riff A x 4

Riff B x 4


Riff A
	Raise your, raise your cup
	And struggle, struggle
	You've got to struggle
	Make a toast to all your trouble
	You got trouble, yeah


Riff B
	Cease to exist
	Cease to exist
	Cease to exist
	Cease to exist
	I swear


Riff C (Solo):

e|------------------------------------8-9-10-11-----|
B|-11-11-11-11\10-10-10-10-10/9-9-9-9---------------|
G|--------------------------------------------------|
D|--------------------------------------------------|
A|--------------------------------------------------|
E|--------------------------------------------------|

---------------------------------------------------|
-8/9-9\8/9/13-13-13--8/9-9\8/9b--------------------|
---------------------------------------------------|
---------------------------------------------------|
---------------------------------------------------|
---------------------------------------------------|



Riff A
	Crossroad, crossroad yourself to death
	And carve that well-worn path to gravel red


Riff B
	Cease to exist
	Cease to exist

Riff A
	Cease to exist on your Christmas list

Riff B x 1
Добавлено: 05.07.2012
Другие материалы по этой песне:
  • Аккорды и текст

Страница создана 22.02.2012
http://primanota.ru/babes-in-toyland/swamp-pussy-chords.htm
Привет, Гость.
Предлагаем пройти революционный курс по гитаре.
Подарок от PrimaNota.Ru, забирай!