PrimaNota.ru - самый крупный в мире бесплатный архив песенных текстов, аккордов, табулатур и нот


Babes In Toyland - Spun - аккорды и текст, таба, видео

Регистрация Запомнить меня
Войти через:  Facebook Google Twitter Vk Yandex Mail.ru

Babes In Toyland - Spun - аккорды и текст, таба, видео

Печатать
Просмотров: 208
Уроки эстрадного вокала в Санкт-Петербурге
Spun
Babes In Toyland
		   Submitted by S. Little
SPUN
Music by Babes  In Toyland
Spun is off of ^ÓFontanelle^Ô
Transcribed by J. Mann

	I am posting this for all Babes In Toyland fans who are always in
search for Babes^Ò tab. J. Mann  transcribed this for me and now I
pass it along to you, haveablast!

First Part:
				"I live inside......"
E---------------------------------------------------------------------
------------------------E
B-------------------------------------------------------0-------------
------------------------B
G---------------------0-------------------------3-----------0-----3---
----------------------G
D---------------6---------6--------------2----------------------------
-----------------------D
A---------7---------------------0----3--------------------------------
-----------------------A
E----0----------------------------------------------------------------
------------------------E

And the Chorus:
	"Now that I know what you're all about..."
E---------------------------------------------------------------------
----------------E
B---------------------------------------------------------------------
----------------B
G--7-----------7-------------7--------------7-------------7-----------
---7----------G
D--6-----------6-------------6--------------6-------------6-----------
---7----------D
A--7-----------6-------------6--------------7-------------6-----------
---6----------A
E-----0-0-0-0-----0-0-0-0------0-0-0-0-------0-0-0-0--------0-0-0-0---
----------E

E------------------------------------E
B------------------------------------B
G-3-3-3-3--------------------------G
D-2-2-2-2--------------------------D
A-3-3-3-3--------------------------A
E------------------------------------E

And the Bridge:
"Life is real when you're dreaming..."
E---------------------------------------------------------------------
------E
B-------------3------------------3------------------3-----------------
-----B
G--------1--------------------0------------------0--------------------
----G
D-----2--------------------2------------------0----------------4-4-4-
4-4-D
A-----------------2--1--0------------0--2---------------------4-4-4-4-
4-A
E---0---------------------------------------3------------3--3--2-2-2-
2-2-E

And the ending:
E---------------------------------------------------------------------
-------E
B---------------------------------------------------------------------
-------B
G---------------------------------------------------------------------
-------G
D--4------------4-------------4--------------4-------------4----------
---4--D
A--4------------4-------------4--------------4-------------4----------
---4--A
E--2--0-0-0-0--2--0-0-0-0---2--0-0-0-0---2--0-0-0-0---2--0-0-0-0---2--
E

E---------------------------E
B---------------------------B
G---------------------------G
D-------------4-4-4-4------D
A-------------4-4-4-4------A
E--0-0-0-0---2-2-2-2------E     
Добавлено: 17.08.2013
Другие материалы по этой песне:
  • Аккорды и текст

Страница создана 27.02.2012
http://primanota.ru/babes-in-toyland/spun-chords.htm
Привет, Гость.
Предлагаем пройти революционный курс по гитаре.
Подарок от PrimaNota.Ru, забирай!