PrimaNota.ru - самый крупный в мире бесплатный архив песенных текстов, аккордов, табулатур и нот


Babes In Toyland - Blood - текст песни, таба, видео

Регистрация Запомнить меня
Войти через:  Facebook Google Twitter Vk Yandex Mail.ru

Babes In Toyland - Blood - текст песни, таба, видео

Печатать
Просмотров: 340
---------------------------------------
 Blood - Babes In Toyland - Fontanelle
---------------------------------------

Intro/Verse
e|--------6b--|
b|--5--8------|
g|------------|
d|------------|
a|------------|
E|------------|

Chorus
e|-----------|
b|-----------|
g|-----------|
d|--5--6--8--|
a|--5--6--8--|
E|--3--4--6--|
Добавлено: 08.05.2012
Другие материалы по этой песне:
  • Аккорды и текст

Страница создана 08.05.2012
http://primanota.ru/babes-in-toyland/blood-chords.htm
Привет, Гость.
Предлагаем пройти революционный курс по гитаре.
Подарок от PrimaNota.Ru, забирай!