PrimaNota.ru - самый крупный в мире бесплатный архив песенных текстов, аккордов, табулатур и нот


The Babe Rainbow - Evolution 1964 - аккорды и текст, видео

Регистрация Запомнить меня
Войти через:  Facebook Google Twitter Vk Yandex Mail.ru

The Babe Rainbow - Evolution 1964 - аккорды и текст, видео

Печатать
Просмотров: 159
Evolution 1964
The Babe Rainbow
The Babe Rainbow - Evolution 1964
song: https://www.youtube.com/watch?v=H3JfVwXr5w4
note: lyric suggestions are welcome

INTRO
G#  F#
G#  F#
G#  F#
G#

VERSE 1
G#        F#     G#      F#
There's a vein inside my heart
    G#      F#     G#       F#
You know it wasn't there at the start
G#     F#  G#  F#
Great solution to it all
G#        F#     G#      
Let's go back to nineteen sixty-four

CHORUS
G#
G# G F#        C#
     Evolution 1964
G#
G# G F#               C#
     Smite me down in 1964
G#
Wade through the door

RIFF

VERSE 2
G#   F#        G#      F#
No parking in chrystal storm
G#         F#     G#
There's no buzz collective anymore
G#   F#    G#    F#
Buy your tickets to the world
G#  F#      G#
Aah are you into it at all

CHORUS
G#
G#   G  F#        C#
This is evolution 1964
G#
G# G F#               C#
     Smite me down in 1964
G#
Wade through the door

GUITAR SOLO

BASS RIFF (throughout the guitar solo)
G|----------|
D|-------4\-|
A|----6-----|
E|-4--------|
                         That's right
   G#
e|-------------------------------------------------------------|
B|-------------------------------------------------------------|
G|----------------------------------10--11-10------------------|
D|----10-13---13-----10-13--10----11--11-----11---10-13----13--|
A|-11-------------11-----------11--------------11--------11----|
E|-------------------------------------------------------------|

   G#             
e|-------------------------------------------------------------|
B|-------------------------------------------------------------|
G|------------------10--11-10----------------------------------|
D|----10-13--10---11--11-----11---10-13--10-9---9--------------|
A|-11-----------11-------------11------------------------------|
E|-------------------------------------------------------------|

BRIDGE
G#  F#  G#  F#
Aah aah aah aah
   G#   F# G#
Evolution
G#  F#  G#  F#
Aah aah aah aah
   G#   F# G#
Evolution

CHORUS
G#
G# G F#     C#
            1964
G#
G# G F#               C#
     Smite me down in 1964
G#
Wade through the door

BREAKDOWN
G#

G# F#  G#  F#   G#  F#   G#
E- vo- lu- tion nineteen sixty-four
G# F#  G#  F#   G#  F#   G#
E- vo- lu- tion nineteen sixty-four
G#                     G    F#
Creeping and crawl around my soul

OUTRO CHORUS
G#
G# G F#     C#
            1964
G#
G# G F#        C#
     Evolution 1964
G#
G# G F#         C#
     I'm going away for a while
G#
G# G F#     C#
            1964

End on G#
Добавлено: 31.07.2015
Вам также может быть интересно:
Другие материалы по этой песне:
  • Аккорды и текст

Страница создана 31.07.2015
http://primanota.ru/babe-rainbow/evolution-1964-chords.htm
Привет, Гость.
Предлагаем пройти революционный курс по гитаре.
Подарок от PrimaNota.Ru, забирай!