PrimaNota.ru - самый крупный в мире бесплатный архив песенных текстов, аккордов, табулатур и нот


B4-4 - Foggy Window Pane - таба, видео

Регистрация Запомнить меня
Войти через:  Facebook Google Twitter Vk Yandex Mail.ru

B4-4 - Foggy Window Pane - таба, видео

Печатать
Просмотров: 220
Foggy Window Pane

intro: Dm Dsus2 Dsus 4 Dm

verse 1

acoustic
(finger picked)
e---1---1---0---0---3---3---1------------|
b-3---3---3---3---3---3---3---3----------|
g--2-2-2-2-2-2-2-2-2-2-2-2-2-2-2----- *4-|
d----------------------------------------|
a-------------------------------0h3h5----|
E----------------------------------------|

chorus

acoustic
e-1-1-3-3-33-|
b-3-3-5-5-55-|
g-2-2-5-5-55-|
d------------|
a------------|
E------------|

electric (slight dist.) w/ acoustic
e-6-3-5---|
b-6-6-6---|
g-5-5-5---| *4
d---------|
a---------|
E---------|

verse 2 (and 3)

electric 1 w/acoustic chords
  F---------A---------G------A-------------|
e--1--1---1--0--0---0--3--3---3--0--0------|
b-1--1---1--2--2---2--3--3---3--2--2--2----|
g-------------------------------------2 *4-|
d-------------------------------------2----|
a------------------------------------------|
E------------------------------------------|

electric 2 (played with electric 1)
e------------------------------------------|
b------------------------------------------|
g-5~~~~~~~~-----------10~~~~~~~-------- *4-|
d-5~~~~~~~~-7~~~~~~~~-10~~~~~~~-77-77-7----|
a-3~~~~~~~~-7~~~~~~~~-8~~~~~~~~-77-77-7----|
E-----------5~~~~~~~~-----------55-55-5----|

chorus (electric plays with acoustic)

solo
electric 3
e-8p7p5h7p5h7p5h7h8p7p5h7tr8~~~-8p7p5h7p5h7p5h7-8b(10)-8-7-|
b----------------------------------------------------------|
g----------------------------------------------------------|
d----------------------------------------------------------|
a----------------------------------------------------------|
E----------------------------------------------------------|

e-10--10b(12)-12br(10)-12br(10)-12br(10)-12br(10)p8-8-10-13-|
b-----------------------------------------------------------|
g-----------------------------------------------------------|
d-----------------------------------------------------------|
a-----------------------------------------------------------|
E-----------------------------------------------------------|

e-13-13b(15)-13b(15)13b(15)13h15--------------|v~~~~~~~~~~~\
b---------------------------------------------|
g---------------------------------------------|
d---------------------------------------------|
a---------------------------------------------|
E---------------------------------------------|

verse 3

chorus *2

outro

electric 1
e-10b(12)--12b(14)-15--17p15p12-10p8p7-------------------|
b-------------------------------------10p9p7-------------|
g-------------------------------------------9b(10)~~~~~7-|
d------------------------------------------------------7-|
a------------------------------------------------------5-|
E--------------------------------------------------------|
Добавлено: 04.03.2012
Другие материалы по этой песне:
  • Аккорды и текст

Страница создана 04.03.2012
http://primanota.ru/b4-4/foggy-window-pane-chords.htm
Привет, Гость.
Предлагаем пройти революционный курс по гитаре.
Подарок от PrimaNota.Ru, забирай!