PrimaNota.ru - самый крупный в мире бесплатный архив песенных текстов, аккордов, табулатур и нот


Aztec Two Step - Olga Black September - таба, видео

Регистрация Запомнить меня
Войти через:  Facebook Google Twitter Vk Yandex Mail.ru

Aztec Two Step - Olga Black September - таба, видео

Печатать
Просмотров: 59
-------------------------------------------------------------------------------
                             SONG NAME - Band Name
-------------------------------------------------------------------------------
Tabbed by:
E-mail:

Tuning:

e|----------0-----5---3----0------------0----1-----0h1p0---------------------------------|
B|-----1------------------------3---1-----------------------3--0-------------------------|
G|---------------------------------------------------------------------------------------|
D|---------------------------------------------------------------------------------------|
A|-----3--------------2-------------0----------------------------------------------------|
E|-------------------------------------------------3-------------------------------------|

e|---------0--- 0----------0-----0--    -0-----0-----------------------------------------|
B|---------2--- 2----------2-----2-   - -2-----2-----------------------------------------|
G|---------0----0----------0-----0-   -- 0-----0-----------------------------------------|
D|---------2----2--------- 0-----0---    2-----2-----------------------------------------|
A|---3-----3----3-----2----2-----2---0-------------------0---2---------------------------|
E|---------------------------------------------------3-----------------------------------|




************************************

| /   slide up
| \   slide down
| h   hammer-on
| p   pull-off
| ~   vibrato
| +   harmonic
| x   Mute note
| b   Bend
| pb  Pre-bend
| br  Bend release
| pbr Pre-bend release
| brb Bend release bend

************************************
Добавлено: 17.11.2015
Вам также может быть интересно:
Другие материалы по этой песне:
  • Аккорды и текст

Страница создана 17.11.2015
http://primanota.ru/aztec-two-step-2/olga-black-september-chords.htm
Привет, Гость.
Предлагаем пройти революционный курс по гитаре.
Подарок от PrimaNota.Ru, забирай!