PrimaNota.ru - самый крупный в мире бесплатный архив песенных текстов, аккордов, табулатур и нот


Aztec Camera - Working In A Goldmine - текст песни, таба, видео

Регистрация Запомнить меня
Войти через:  Facebook Google Twitter Vk Yandex Mail.ru

Aztec Camera - Working In A Goldmine - текст песни, таба, видео

Печатать
Просмотров: 172
Авторы музыки: Roddy Frame
Авторы текста: Roddy Frame
This is how I think its played. However, if anybody has a better idea of it, then your
feedback will be much appreciated.

Am  E   Dm  Am  C   G   F   E
0---0---1---0---0---3---1---0-----------------|
1---0---3---1---1---3---1---0-----------------|
2---1---2---2---0---0---2---1       VERSE-----|    x2
2---2---0---2---2---0---3---2-----------------|
0---2-------0---3---2---3---2-----------------|
----0---------------3---1---0-----------------|

Am7 Dm7 G   C
5---5---3-------|
5---6---3---5---|
5---5---4---5---|       CHORUS    X4
5---7---5---5---|
7---5---5---3---|
5-------3-------|

F    C   Bm  G   F   E
---------2---3---1---0------|
10---5---3---3---1---0------|
10---5---4---4---2---1------|     BRIDGE
10---5---4---5---3---2------|
8----3---2---5---3---2------|
-------------3---1---0------|

SOLO:

----------------------------------10-10-8--8-10-----------------------------|
-----------------------8-8-8-10---10-10-8--8-10-----------------------------|
7(9)b-5-5-5-7-7-7-9-9-9------------------------7(9)b-7--5-5-7-5-7~9(slide)--|
-----7---------------------------------------------------7------------------|
----------------------------------------------------------------------------|
----------------------------------------------------------------------------|


--------10(12)b--10--8-------------------------------------------------------|
-8-10-10----------------10-----------------------8--10--8--------------------|
9-------------------------------5--7--5---5--7--9-9---9--9--7--5-------------|
----------------------------5--7---------7----------------------7--5---------|
--------------------------------------------------------------------7--6--5--|
---------------------------------------------------------------------------5-|
Добавлено: 10.07.2012
Другие материалы по этой песне:
  • Аккорды и текст

Страница создана 02.07.2012
http://primanota.ru/aztec-camera/working-in-a-goldmine-chords.htm
Привет, Гость.
Предлагаем пройти революционный курс по гитаре.
Подарок от PrimaNota.Ru, забирай!