PrimaNota.ru - самый крупный в мире бесплатный архив песенных текстов, аккордов, табулатур и нот


Azeroth - Campaa Al Desierto - таба, видео

Регистрация Запомнить меня
Войти через:  Facebook Google Twitter Vk Yandex Mail.ru

Azeroth - Campaa Al Desierto - таба, видео

Печатать
Просмотров: 98
                               CAMPAÑA AL DESIERTO
                             As recorded by Azeroth
                          (From the 2000 Album AZEROTH)

Words by FERNANDO RICCIARDULLI

Music by Azeroth
Arranged by FERNANDO RICCIARDULLI
Transcribed by diego_vilca@hotmail.com

Gtr I (E A D G B E) - 'Guitar 1'
Gtr II (E A D G B E) - 'Guitar 2'

 Intro
  Q=145
 4/4
  Gtr I
  S S S S S S S S   E E E E Q E E    Q  E E E E E E
|-----------------|---------------|-----------------|
|-----------------|---------------|-----------------|
|-----------------|---------------|-----------------|
|-----------------|---------6-----|---------6-------|
|---------5-5-5-5-|-6-9-8-6---9-8-|--6--8-9---9-8-6-|
|-6-6-6-6---------|---------------|-----------------|
|
| Gtr II
|                   W               +W
|-----------------|---------------|-----------------|
|-----------------|---------------|-----------------|
|-----------------|-8-------------|-(8)-------------|
|-----------------|-8-------------|-(8)-------------|
|-----------------|-6-------------|-(6)-------------|
|-----------------|---------------|-----------------|


  E E E E Q E E   Q  E  E E E E E
|---------------|--------------------|
|---------------|--------------------|
|---------------|--------------------|
|---------6-----|---------6----------|
|---9-8-6---9-8-|-6--8--9---9-8-6----|
|-7-------------|--------------------|
|
|   W               +W
|---------------|--------------------|
|---------------|--------------------|
|---4-----------|---(4)--------------|
|---4-----------|---(4)--------------|
|---2-----------|---(2)--------------|
|---------------|--------------------|


                                          ~~~~~~
  E E E E Q E E   Q  E  E E E E E   E E E H +E     E  E E E H
|---------------|-----------------|-------------|-------------------|
|---------------|-----------------|-------------|-------------------|
|---------------|-----------------|-------------|-------------------|
|---------6-----|---------6-8-6---|-----6-8-(8)-|-------6-8-8tr9----|
|---9-8-6---9-8-|-6--8--9-------9-|-8S9---------|--8S=9-------------|
|-4-------------|-----------------|-------------|-------------------|
|
| W                 +W              W             +W
|---------------|-----------------|-------------|-------------------|
|---------------|-----------------|-------------|-------------------|
|---------------|-----------------|-------------|-------------------|
|-6-------------|---(6)-----------|-8-----------|-(8)---------------|
|-6-------------|---(6)-----------|-8-----------|-(8)---------------|
|-4-------------|---(4)-----------|-6-----------|-(6)---------------|


  E  E  E E Q  E  E    Q   E  E E  E  E E
|-------------------|---------------------|
|-----------9-------|-----------9---------|
|-8-11-10-8---11-10-|--8--10-11---11-10-8-|
|-------------------|---------------------|
|-------------------|---------------------|
|-------------------|---------------------|
|
| W                   +W
|-------------------|---------------------|
|-------------------|---------------------|
|-8-----------------|-(8)-----------------|
|-8-----------------|-(8)-----------------|
|-6-----------------|-(6)-----------------|
|-------------------|---------------------|


  E  E  E E Q  E  E    Q   E  E E  E  E E
|-------------------|------------------------|
|-----------9-------|-----------9------------|
|---11-10-8---11-10-|--8--10-11---11-10-8----|
|-9-----------------|------------------------|
|-------------------|------------------------|
|-------------------|------------------------|
|
| W                   +W
|-------------------|------------------------|
|-------------------|------------------------|
|-4-----------------|-(4)--------------------|
|-4-----------------|-(4)--------------------|
|-2-----------------|-(2)--------------------|
|-------------------|------------------------|


  E  E  E E Q  E  E    Q   E  E E  E E  E
|-------------------|---------------------|
|-----------9-------|-----------9-11-9----|
|---11-10-8---11-10-|--8--10-11--------11-|
|-6-----------------|---------------------|
|-------------------|---------------------|
|-------------------|---------------------|
|
| W                   +W
|-------------------|---------------------|
|-------------------|---------------------|
|-------------------|---------------------|
|-6-----------------|-(6)-----------------|
|-6-----------------|-(6)-----------------|
|-4-----------------|-(4)-----------------|


           ~~~~~~~
   E  E E  H  +E     E   E E  E  H
|-----------------|-----------------------|
|-------9-11-(11)-|--------9-11-11tr12----|
|-10S11-----------|-10S=11----------------|
|-----------------|-----------------------|
|-----------------|-----------------------|
|-----------------|-----------------------|
|
|  W                +W
|-----------------|-----------------------|
|-----------------|-----------------------|
|-----------------|-----------------------|
|--8--------------|-(8)-------------------|
|--8--------------|-(8)-------------------|
|--6--------------|-(6)-------------------|


  E    E    E E Q        E  E   Q        E  E E  E  E  E
|-----------------------------|-------------------------------|
|---------------9-------------|---------------9---------------|
|-8---11---10-8---------11-10-|-8-------10-11---11-10--8------|
|-----------------------------|-------------------------------|
|-----------------------------|-------------------------------|
|-----------------------------|-------------------------------|
|
| S S  S S  q   S S S S  q      S S S S  S  S    e +e  E E
|-----------------------------|-------------------------------|
|-----------------------------|-------------------------------|
|-8-8--8-8--8---8-8-8-8--8----|-8-8-8-8--8--8----8-(8)-8-8----|
|-8-8--8-8--8---8-8-8-8--8----|-8-8-8-8--8--8----8-(8)-8-8----|
|-6-6--6-6--6---6-6-6-6--6----|-6-6-6-6--6--6----6-(6)-6-6----|
|-----------------------------|-------------------------------|


  E    E    E E Q        E  E   Q        E    E  E   E  E E
|-----------------------------|--------------------------------|
|---------------9-------------|------------------9-------------|
|-----11---10-8---------11-10-|-8-------10---11-----11-10-8----|
|-9---------------------------|--------------------------------|
|-----------------------------|--------------------------------|
|-----------------------------|--------------------------------|
|
| S S  S S  q   S S S S  q      S S S S  S S  e +e   E  E
|-----------------------------|--------------------------------|
|-----------------------------|--------------------------------|
|-4-4--4-4--4---4-4-4-4--4----|-4-4-4-4--4-4--4-(4)--4--4------|
|-4-4--4-4--4---4-4-4-4--4----|-4-4-4-4--4-4--4-(4)--4--4------|
|-2-2--2-2--2---2-2-2-2--2----|-2-2-2-2--2-2--2-(2)--2--2------|
|-----------------------------|--------------------------------|


  E    E    E E Q        E  E   Q        E    E  E   E E  E
|-----------------------------|--------------------------------|
|---------------9-------------|------------------9--11-9-------|
|-----11---10-8---------11-10-|-8-------10---11----------11----|
|-6---------------------------|--------------------------------|
|-----------------------------|--------------------------------|
|-----------------------------|--------------------------------|
|
| S S  S S  q   S S S S  q      S S S S  S S  e +e   E E
|-----------------------------|--------------------------------|
|-----------------------------|--------------------------------|
|-----------------------------|--------------------------------|
|-6-6--6-6--6---6-6-6-6--6----|-6-6-6-6--6-6--6-(6)--6-6-------|
|-6-6--6-6--6---6-6-6-6--6----|-6-6-6-6--6-6--6-(6)--6-6-------|
|-4-4--4-4--4---4-4-4-4--4----|-4-4-4-4--4-4--4-(4)--4-4-------|


           ~~~~~~~~~~
   E  E E  H     +E         E   E E  E  H
|------------------------|-----------------------|
|-------9-11----(11)-----|--------9-11-11tr12----|
|-10S11------------------|-10S=11----------------|
|------------------------|-----------------------|
|------------------------|-----------------------|
|------------------------|-----------------------|
|
|                           ~~~
|  W                       +W
|------------------------|-----------------------|
|------------------------|-----------------------|
|------------------------|-----------------------|
|--8---------------------|-(8)-------------------|
|--8---------------------|-(8)-------------------|
|--6---------------------|-(6)-------------------|


   Pre-Verse
     Q   Q  E E +Q      Q   E  +E  E E E +E
||--------------------|-------------------------|
||o-------------------|-------------------------|
||---8------8---------|-------------------------|
||---8---8--8-8-(8)---|-9--11-(11)-8-6-8-(8)----|
||o-/6---8--6-8-(8)---|-9--11-(11)-8-6-8-(8)----|
||------\6----6-(6)---|-7---9--(9)-6-4-6-(6)----|
|
|    Q   Q  E E +Q      Q   E  +E  E E E +E
||--------------------|-------------------------|
||o-------------------|-------------------------|
||---8------8---------|-------------------------|
||---8---8--8-8-(8)---|-9--11-(11)-8-6-8-(8)----|
||o-/6---8--6-8-(8)---|-9--11-(11)-8-6-8-(8)----|
||------\6----6-(6)---|-7---9--(9)-6-4-6-(6)----|


  E +S  S E  E   E  E  E E E   S S  E E H
|----------------------------|--------------------||----|
|----------------------------|-------------------o||----|
|----------------------------|--------------------||----|
|-9-(9)----------------------|--------9-8tr9------||----|
|-9-(9)------------------8-9-|-9-9-11------------o||----|
|-7-(7)-7-9-11--10-10-11-----|--------------------||----|
|
| Q +Q    Q +Q             E   S S  E E H
|----------------------------|--------------------||----|
|----------------------------|-------------------o||----|
|---------7-(7)--------------|--------8-7tr8------||----|
|-9-(9)---7-(7)--------------|-8-8--9-------------||----|
|-9-(9)---5-(5)------------9-|-------------------o||----|
|-7-(7)----------------------|--------------------||----|


  Q=120
  PM----------------------------------------------|
  S S S S S S S S S S S S   S S S S S S S S S S S S
|-------------------------|----------------------------|
|-------------------------|----------------------------|
|-------------------------|----------------------------|
|-------3---3-4-6-4-3-----|-------------1-3-1----------|
|-6-4-6---6-----------6-4-|-2-1-2-4-2-4-------4-2-1----|
|-------------------------|----------------------------|
|
| PM----------------------------------------------|
| S S S S S S S S S S S S   S S S S S S S S S S S S
|-------------------------|----------------------------|
|-------------------------|----------------------------|
|-------------------------|----------------------------|
|-------3---3-4-6-4-3-----|-------------1-3-1----------|
|-6-4-6---6-----------6-4-|-2-1-2-4-2-4-------4-2-1----|
|-------------------------|----------------------------|


  PM------------------------------------------|
  S S S S S S S S S S S S   S S S S S S S S S E +S
|-------------------------|----------------------------|
|-------------------------|----------------------------|
|-------------------------|----------------------------|
|-------------------------|-------------1---1-3-(3)----|
|-------1---1-2-4-2-1---1-|-2-1-2-4-2-4---4------------|
|-4-2-4---4-----------4---|----------------------------|
|
| PM------------------------------------------|
| S S S S S S S S S S S S   S S S S S S S S S E +S
|-------------------------|----------------------------|
|-------------------------|----------------------------|
|-------------------------|----------------------------|
|-------------------------|-------------1---1-3-(3)----|
|-------1---1-2-4-2-1---1-|-2-1-2-4-2-4---4------------|
|-4-2-4---4-----------4---|----------------------------|


  PM----------------------------------------------|
  S S S S S S S S S S S S   S S S S S S S S S S S S
|-------------------------|----------------------------|
|-------------------------|----------------------------|
|-------------------------|----------------------------|
|-------3---3-4-6-4-3-----|-------------1-3-1----------|
|-6-4-6---6-----------6-4-|-2-1-2-4-2-4-------4-2-1----|
|-------------------------|----------------------------|
|
| S S S S S S S S S S S S   S S S S S S S S S S S S
|-------------------------|----------------------------|
|-------------------------|----------------------------|
|-------------6-8-6-------|-------------6-8-6----------|
|-8-6-8-9-8-9-------9-8-6-|-8-6-8-9-8-9-------9-8-6----|
|-------------------------|----------------------------|
|-------------------------|----------------------------|


                                                         Q=145
  PM------------------------------------------|
  S S S S S S S S S S S S   S S S S S S S S S E +S
|-------------------------|---------------------------|------|
|-------------------------|---------------------------|------|
|-------------------------|---------------------------|------|
|-------------------------|-------------1---1-3-(3)---|------|
|-------1---1-2-4-2-1---1-|-2-1-2-4-2-4---4-----------|------|
|-4-2-4---4-----------4---|---------------------------|------|
|
|                                             ~~~~~~
| S S S S S S S S S S S S   S S S S S S S S S E +S
|-------------------------|---------------------------|------|
|-------------------------|---------------------------|------|
|-------------6-8-6-------|---------------------------|------|
|-8-6-8-9-8-9-------9-8-6-|-------------6---6-8-(8)---|------|
|-------------------------|-8-6-8-9-8-9---9-----------|------|
|-------------------------|---------------------------|------|


  Q  Q  Q  E E   Q  Q  Q  E E   H      H
|--------------|--------------|------|------|
|--------------|--------------|------|------|
|-8----------7-|-8----------7-|------|-7----|
|-8--9--6--8-7-|-8--9--6--8-7-|-8----|-7----|
|-6--9--6--8-5-|-6--9--6--8-5-|-8----|-5----|
|----7--4--6---|----7--4--6---|-6----|------|
|
| Q  Q  Q  E E   Q  Q  Q  E E   H      H
|--------------|--------------|------|------|
|--------------|--------------|------|------|
|-8----------7-|-8----------7-|------|-7----|
|-8--9--6--8-7-|-8--9--6--8-7-|-8----|-7----|
|-6--9--6--8-5-|-6--9--6--8-5-|-8----|-5----|
|----7--4--6---|----7--4--6---|-6----|------|


   Verse
    Q=200
    PM--------------------------------|
    S  S  S S S S S S S S S S S S S S   
||------------------------------------|
||o-----------------------------------|
||------------------------------------|
||------------------------------------|
||o-6--6--6-6-6-6-6-6-6-6-6-6-6-6-6-6-|
||------------------------------------|
|
|         PM------------------------|         
|   S +S  S S S S S S S S S S S S S S   
||------------------------------------|
||o-----------------------------------|
||--8---------------------------------|
||--8---------------------------------|
||o-6-(6)-6-6-6-6-6-6-6-6-6-6-6-6-6-6-|
||------------------------------------|


|------------------------------------|
|------------------------------------|
|------------------------------------|
|------------------------------------|
|------------------------------------|
|-7--7--7-7-7-7-7-7-7-7-7-7-7-7-7-7--|
|
|       PM------------------------|
| S +S  S S S S S S S S S S S S S S
|------------------------------------|
|------------------------------------|
|------------------------------------|
|-9----------------------------------|
|-9----------------------------------|
|-7-(7)-7-7-7-7-7-7-7-7-7-7-7-7-7-7--|



  PM--------------------------------
  S  S  S S S S S S S S S S S S S S   
|-----------------------------------|
|-----------------------------------|
|-----------------------------------|
|-----------------------------------|
|-----------------------------------|
|-4--4--4-4-4-4-4-4-4-4-4-4-4-4-4-4-|
|
|       PM------------------------|  
| S +S  S S S S S S S S S S S S S S   
|-----------------------------------|
|-----------------------------------|
|-----------------------------------|
|-6---------------------------------|
|-6---------------------------------|
|-4-(4)-4-4-4-4-4-4-4-4-4-4-4-4-4-4-|


 
  PM--------------------------------|
  S  S  S S S S S S S  S  S S S S S S   4x
|---------------------------------------||-|
|--------------------------------------o||-|
|---------------------------------------||-|
|---------------------------------------||-|
|-------------------5--5--5-5-5-5-5-5--o||-|
|-6--6--6-6-6-6-6-6---------------------||-|
|
|       PM--------|       PM--------|
| S +S  S S S S S S S +S  S S S S S S   4x
|---------------------------------------||-|
|--------------------------------------o||-|
|-------------------7-------------------||-|
|-8-----------------7-------------------||-|
|-8-----------------5-(5)-5-5-5-5-5-5--o||-|
|-6-(6)-6-6-6-6-6-6---------------------||-|  


Pre-Chorus
    E E E E  E  E E E   E E E E  E  E E E
||--------------------|-------------------|
||o-------------------|-------------------|
||--------------------|-------------------|
||-----------6--------|----------6--------|
||o-6-9-8-6-----9-8-6-|---9-8-6-----9-8-6-|
||--------------------|-7-----------------|
|
|   H       +H          H       +H
||--------------------|-------------------|
||o-------------------|-------------------|
||--8-------(8)-------|-------------------|
||--8-------(8)-------|-9-------(9)-------|
||o-6-------(6)-------|-9-------(9)-------|
||--------------------|-7-------(7)-------|


  E E E E  E  E E E   E E E E  E  E E E
|-------------------|--------------------||-|
|-------------------|-------------------o||-|
|-------------------|--------------------||-|
|----------6--------|----------8--6------||-|
|---9-8-6-----9-8-6-|---9-8-9-------9-8-o||-|
|-4-----------------|-6------------------||-|
|
| H       +H          H       +H
|-------------------|--------------------||-|
|-------------------|-------------------o||-|
|-------------------|--------------------||-|
|-6-------(6)-------|-8-------(8)--------||-|
|-6-------(6)-------|-8-------(8)-------o||-|
|-4-------(4)-------|-6-------(6)--------||-|


   Verse 2

PM--------------------------------|
    S  S  S S S S S S S S S S S S S S   
||------------------------------------|
||o-----------------------------------|
||------------------------------------|
||------------------------------------|
||o-6--6--6-6-6-6-6-6-6-6-6-6-6-6-6-6-|
||------------------------------------|
|
|         PM------------------------|         
|   S +S  S S S S S S S S S S S S S S   
||------------------------------------|
||o-----------------------------------|
||--8---------------------------------|
||--8---------------------------------|
||o-6-(6)-6-6-6-6-6-6-6-6-6-6-6-6-6-6-|
||------------------------------------|


|------------------------------------|
|------------------------------------|
|------------------------------------|
|------------------------------------|
|------------------------------------|
|-7--7--7-7-7-7-7-7-7-7-7-7-7-7-7-7--|
|
|       PM------------------------|
| S +S  S S S S S S S S S S S S S S
|------------------------------------|
|------------------------------------|
|------------------------------------|
|-9----------------------------------|
|-9----------------------------------|
|-7-(7)-7-7-7-7-7-7-7-7-7-7-7-7-7-7--|



  PM--------------------------------
  S  S  S S S S S S S S S S S S S S   
|-----------------------------------|
|-----------------------------------|
|-----------------------------------|
|-----------------------------------|
|-----------------------------------|
|-4--4--4-4-4-4-4-4-4-4-4-4-4-4-4-4-|
|
|       PM------------------------|  
| S +S  S S S S S S S S S S S S S S   
|-----------------------------------|
|-----------------------------------|
|-----------------------------------|
|-6---------------------------------|
|-6---------------------------------|
|-4-(4)-4-4-4-4-4-4-4-4-4-4-4-4-4-4-|


 
  PM--------------------------------|
  S  S  S S S S S S S  S  S S S S S S   4x
|---------------------------------------||-|
|--------------------------------------o||-|
|---------------------------------------||-|
|---------------------------------------||-|
|-------------------5--5--5-5-5-5-5-5--o||-|
|-6--6--6-6-6-6-6-6---------------------||-|
|
|       PM--------|       PM--------|
| S +S  S S S S S S S +S  S S S S S S   4x
|---------------------------------------||-|
|--------------------------------------o||-|
|-------------------7-------------------||-|
|-8-----------------7-------------------||-|
|-8-----------------5-(5)-5-5-5-5-5-5--o||-|
|-6-(6)-6-6-6-6-6-6---------------------||-|  




   Pre-Chorus
    E E E E  E  E E E   E E E E  E  E E E
||--------------------|-------------------|
||o-------------------|-------------------|
||--------------------|-------------------|
||-----------6--------|----------6--------|
||o-6-9-8-6-----9-8-6-|---9-8-6-----9-8-6-|
||--------------------|-7-----------------|
|
|   H       +H          H       +H
||--------------------|-------------------|
||o-------------------|-------------------|
||--8-------(8)-------|-------------------|
||--8-------(8)-------|-9-------(9)-------|
||o-6-------(6)-------|-9-------(9)-------|
||--------------------|-7-------(7)-------|


  E E E E  E  E E E   E E E E  E  E E E
|-------------------|--------------------||-|
|-------------------|-------------------o||-|
|-------------------|--------------------||-|
|----------6--------|----------8--6------||-|
|---9-8-6-----9-8-6-|---9-8-9-------9-8-o||-|
|-4-----------------|-6------------------||-|
|
| H       +H          H       +H
|-------------------|--------------------||-|
|-------------------|-------------------o||-|
|-------------------|--------------------||-|
|-6-------(6)-------|-8-------(8)--------||-|
|-6-------(6)-------|-8-------(8)-------o||-|
|-4-------(4)-------|-6-------(6)--------||-|


   Chorus
    H   +Q    Q   H   +H             H   +Q     Q   H   +H
||-------------------------------|-----------------------------|
||o------------------------------|-----------------------------|
||--8---(8)----------------------|-----------------------------|
||--8---(8)---6---8---(8)--------|---9---(9)---11---8---(8)----|
||o-6---(6)---6---8---(8)--------|---9---(9)---11---8---(8)----|
||--6---(6)---4---6---(6)--------|---7---(7)----9---6---(6)----|
|
|   H   +Q    Q   H   +H             H   +Q     Q   H   +H
||-------------------------------|-----------------------------|
||o------------------------------|-----------------------------|
||--8---(8)----------------------|-----------------------------|
||--8---(8)---6---8---(8)--------|---9---(9)---11---8---(8)----|
||o-6---(6)---6---8---(8)--------|---9---(9)---11---8---(8)----|
||--6---(6)---4---6---(6)--------|---7---(7)----9---6---(6)----|



1.
  PM----------------------------------------------------
  S S S  S  S S S S S S S  S  S S S S S S S  S  S S S S 
|-------------------------------------------------------
|-------------------------------------------------------
|-------------------------------------------------------
|-------------------------------------------------------
|-2-2-2--2--2-2-2-2-4-4-4--4--4-4-4-4-1-1-1--1--1-1-1-1-
|-------------------------------------------------------
|
| ~                 ~                 ~                  
| Q     +Q          Q     +Q          Q     +Q          
|-------------------------------------------------------
|-------------------------------------------------------
|-------------------------------------------------------
|-------------------------------------------------------
|-2-----(2)---------4-----(4)---------1-----(1)--------- 
|-------------------------------------------------------

1.
  PM-----------------------------------------------------|
  S S S  S  S S S S S S S  S  S S S S S S S S  S  S S S H  +Q   +Q
|--------------------------------------------------------------------||
|-------------------------------------------------------------------o||
|------------------------------------------------------3--(3)--(3)---||
|------------------------------------------------------3--(3)--(3)---||
|------------------------------------------------------1--(1)--(1)--o||
|2-2-2--2--2-2-2-2-4-4-4--4--4-4-4-4-1-1-1-1--1--1-1-1---------------||
|
|~                 ~                   ~
| Q     +Q          Q     +Q            Q     +Q        H  +Q   +Q
|--------------------------------------------------------------------||
|-------------------------------------------------------------------o||
|------------------------------------------------------3--(3)--(3)---||
|------------------------------------------------------3--(3)--(3)---||
|------------------------------------------------------1--(1)--(1)--o||
|2-----(2)---------4-----(4)-----------1-----(1)---------------------||





 

                     
  2.
                ~~~
  Q  +Q   +Q   +E     
|------------------||
|------------------||
|------------------||
|-1--(1)--(1)--(1)-||
|-1--(1)--(1)--(1)-||
|------------------||
|               ~~~~~~~~~~~
| Q  +Q   +Q   +E      
|------------------||
|------------------||
|------------------||
|-1--(1)--(1)--(1)-||
|-1--(1)--(1)--(1)-||
|------------------||


Bridge 
 
       S  +S  E +E  E  E E +E  E +E     E  +E   E E  E   +E   E  E
||---------------------7-(7)-------|------------9-11--(11)-14-14-|
||o---------9-(9)-9-11-------9-(9)-|-12-(12)-12------------------|
||---8--(8)------------------------|-----------------------------|
||---------------------------------|-----------------------------|
||o--------------------------------|-----------------------------|
||---------------------------------|-----------------------------|
|
|               ~~~~~~~~~~~
|   +E      W                         H           +H
||---------------------------------|-----------------------------|
||o--------------------------------|-----------------------------|
||---------------------------------|-----------------------------|
||--(1)-----6----------------------|--9-----------(9)------------|
||o-(1)-----6----------------------|--9-----------(9)------------|
||----------4----------------------|--7-----------(7)------------|

                                  1.
                                         ~~~~~~~~~~~~~
   E  +E   E  E    E  +E   E  E    E  E  Q   +Q   +Q
|---------------|---------------|----------------------------||
|-14-(14)-14-14-|---------------|---------------------------o||
|---------------|-15-(15)-15-15-|-16-15-13--(13)-(13)--------||
|---------------|---------------|----------------------------||
|---------------|---------------|---------------------------o||
|---------------|---------------|----------------------------||
|
|  H               H               E  E  Q        +Q  +Q
|---------------|---------------|----------------------------||
|---------------|---------------|---------------------------o||
|--6------------|---------------|----------------------------||
|--6------------|--8------------|--9--8--6--------(6)-(6)----||
|--4------------|--8------------|--9--8--6--------(6)-(6)---o||
|---------------|--6------------|--7S=6--4--------(4)-(4)----||


  2.
   E    E    Q   +Q    +Q
|---------------------------------|
|-----------14--(14)--(14)--------|
|-16---15---13--(13)--(13)--------|
|---------------------------------|
|---------------------------------|
|---------------------------------|
|
|  E    E    Q   +Q    +Q
|---------------------------------|
|---------------------------------|
|---------------------------------|
|--6----8---11--(11)--(11)--------|
|--6----8---11--(11)--(11)--------|
|--7S===6----9---(9)---(9)--------|


   +W                +W                +W
|-----------------|-----------------|---------|
|-(14)------------|-(14)------------|-(14)----|
|-(13)------------|-(13)------------|-(13)----|
|-----------------|-----------------|---------|
|-----------------|-----------------|---------|
|-----------------|-----------------|---------|
|
|  +W                +W                +W
|-----------------|-----------------|---------|
|-----------------|-----------------|---------|
|-----------------|-----------------|---------|
|-(11)------------|-(11)------------|-(11)----|
|-(11)------------|-(11)------------|-(11)----|
|--(9)------------|--(9)------------|--(9)----|


   Interlude
     PM-----------------------------------------------
     q       e  q      e   q       q  q    q   e
||------------------------------|--------------------|
||o-----------------------------|--------------------|
||------------------------------|--------------------|
||------------------------------|--------------------|
||o--6-------6--6------6---6----|--6--6----6---6-----|
||---4-------6--4------6---4----|--4--6----4---6-----|
|
|                      ~~~~        ~~~~~~~~~~~
|    E  +e   E  E  E  +e   E  E    H      +Q   E +e
||--11-(11)-11h12p11-(11)-11-12-|-11-----(11)--9-(9)-|
||o-----------------------------|--------------------|
||------------------------------|--------------------|
||------------------------------|--------------------|
||o-----------------------------|--------------------|
||------------------------------|--------------------|


 -------------------------------------|
   q    e  q   e  q     q    q     q  e
|--------------------|---------------------||
|--------------------|--------------------o||
|--------------------|---------------------||
|--------------------|---------------------||
|--6----6--6---6--6--|--6----6-----6--6---o||
|--4----6--4---6--4--|--4----6-----4--6----||
|
|                                  ~~
|  Q   +Q    Q    Q     E  E E  E  H
|------------9---11--|---------------------||
|-12--(12)-----------|-12-11-9-11-12------o||
|--------------------|---------------------||
|--------------------|---------------------||
|--------------------|--------------------o||
|--------------------|---------------------||


   W                  +W
|-------------------|---------------------|
|-------------------|---------------------|
|--6----------------|-(6)-----------------|
|--6----------------|-(6)-----------------|
|--4----------------|-(4)-----------------|
|-------------------|---------------------|
|
|                                 ~~~~~~~
|  Q   E  E  Q   Q     E  E  E  E Q  +Q
|-------------------|-11--9---------------|
|-14--11-12-14--14--|-------12-11-9--(9)--|
|-------------------|---------------------|
|-------------------|---------------------|
|-------------------|---------------------|
|-------------------|---------------------|


   W                 W
|-----------------|-----------------------|
|-----------------|-----------------------|
|-----------------|-----------------------|
|--8--------------|--9--------------------|
|--8--------------|--9--------------------|
|--6--------------|--7--------------------|
|
|                                ~~~~~~~~
|  Q   Q   Q   Q     Q   +E   E  Q   +Q
|-----------------|-----------------------|
|-11----------11--|-12--(12)-14-12--(12)--|
|-----11--13------|-----------------------|
|-----------------|-----------------------|
|-----------------|-----------------------|
|-----------------|-----------------------|


   PM-------------------|
   Q       E  Q      E   Q       W
|-----------------------------|---------------------|
|-----------------------------|---------------------|
|-----------------------------|--6------------------|
|-----------------------------|--6------------------|
|--6-------6--6------6---6----|--4------------------|
|--4-------6--4------6---4----|---------------------|
|
|                                          ~
|  E  +e   E  E  E  +E   E  E    E E  E  E Q   E  E
|-11-(11)-11-12-11-(11)-12-11-|-11-9----------------|
|-----------------------------|------12-11-9--------|
|-----------------------------|---------------------|
|-----------------------------|---------------13-13-|
|-----------------------------|---------------------|
|-----------------------------|---------------------|


   H             H               E  E  E  E H
|-----------------------------|------------------|
|-----------------------------|------------------|
|-----------------------------|------------------|
|--6-------------8------------|-------------6----|
|--6-------------8------------|--4----------6----|
|--4-------------6------------|-----7--6--6-4----|
|
|                                           ~
|  E  +E   E  E  E  +E   E  E    E  E  E  E Q
|-----------------------------|----------11------|
|-----------------------11-11-|-14-12-11----9----|
|-13-(13)-13-13-15-(15)-------|------------------|
|-----------------------------|------------------|
|-----------------------------|------------------|
|-----------------------------|------------------|


     PM-----------------------------------------------
     q       e  q      e   q       q  q    q   e
||------------------------------|--------------------|
||o-----------------------------|--------------------|
||------------------------------|--------------------|
||------------------------------|--------------------|
||o--6-------6--6------6---6----|--6--6----6---6-----|
||---4-------6--4------6---4----|--4--6----4---6-----|
|
|                      ~~~~        ~~~~~~~~~~~
|    E  +e   E  E  E  +e   E  E    H      +Q   E +e
||--11-(11)-11h12p11-(11)-11-12-|-11-----(11)--9-(9)-|
||o-----------------------------|--------------------|
||------------------------------|--------------------|
||------------------------------|--------------------|
||o-----------------------------|--------------------|
||------------------------------|--------------------|


 -------------------------------------|
   q    e  q   e  q     q    q     q  e
|--------------------|--------------------||---|
|--------------------|-------------------o||---|
|--------------------|--------------------||---|
|--------------------|--------------------||---|
|--6----6--6---6--6--|--6----6-----6--6--o||---|
|--4----6--4---6--4--|--4----6-----4--6---||---|
|
|                                  ~~
|  Q   +Q    Q    Q     E  E E  E  H
|------------9---11--|--------------------||---|
|-12--(12)-----------|-12-11-9-11-12-----o||---|
|--------------------|--------------------||---|
|--------------------|--------------------||---|
|--------------------|-------------------o||---|
|--------------------|--------------------||---|


   W                  +W
|-------------------|---------------------|
|-------------------|---------------------|
|--6----------------|-(6)-----------------|
|--6----------------|-(6)-----------------|
|--4----------------|-(4)-----------------|
|-------------------|---------------------|
|
|                                 ~~~~~~~
|  Q   E  E  Q   Q     E  E  E  E Q  +Q
|-------------------|-11--9---------------|
|-14--11-12-14--14--|-------12-11-9--(9)--|
|-------------------|---------------------|
|-------------------|---------------------|
|-------------------|---------------------|
|-------------------|---------------------|


   W                 W
|-----------------|-----------------------|
|-----------------|-----------------------|
|-----------------|-----------------------|
|--8--------------|--9--------------------|
|--8--------------|--9--------------------|
|--6--------------|--7--------------------|
|
|                                ~~~~~~~~
|  Q   Q   Q   Q     Q   +E   E  Q   +Q
|-----------------|-----------------------|
|-11----------11--|-12--(12)-14-12--(12)--|
|-----11--13------|-----------------------|
|-----------------|-----------------------|
|-----------------|-----------------------|
|-----------------|-----------------------|


   PM-------------------|
   Q       E  Q      E   Q       W
|-----------------------------|---------------------|
|-----------------------------|---------------------|
|-----------------------------|--6------------------|
|-----------------------------|--6------------------|
|--6-------6--6------6---6----|--4------------------|
|--4-------6--4------6---4----|---------------------|
|
|                                          ~
|  E  +e   E  E  E  +E   E  E    E E  E  E Q   E  E
|-11-(11)-11-12-11-(11)-12-11-|-11-9----------------|
|-----------------------------|------12-11-9--------|
|-----------------------------|---------------------|
|-----------------------------|---------------13-13-|
|-----------------------------|---------------------|
|-----------------------------|---------------------|


   H             H               E  E  E  E Q +Q
|-----------------------------|---------------------|
|-----------------------------|---------------------|
|-----------------------------|---------------------|
|--6-------------8------------|-------------6-(6)---|
|--6-------------8------------|--4----------6-(6)---|
|--4-------------6------------|-----7--6--6-4-(4)---|
|
|                                           ~~~~~~
|  E  +E   E  E  E  +E   E  E    E  E  E  E Q +Q
|-----------------------------|----------11---------|
|-----------------------11-11-|-14-12-11----9-(9)---|
|-13-(13)-13-13-15-(15)-------|---------------------|
|-----------------------------|---------------------|
|-----------------------------|---------------------|
|-----------------------------|---------------------|


   Bridge
    S +S  E +E  E  E E +E  E +E     E  +E   E E  E   +E   E  E
||-------------------7-(7)-------|------------9-11--(11)-14-14-|
||o-------9-(9)-9-11-------9-(9)-|-12-(12)-12------------------|
||--8-(8)------------------------|-----------------------------|
||-------------------------------|-----------------------------|
||o------------------------------|-----------------------------|
||-------------------------------|-----------------------------|
|
|   E     W                         H           +H
||-------------------------------|-----------------------------|
||o------------------------------|-----------------------------|
||-------------------------------|-----------------------------|
||--1-----6----------------------|--9-----------(9)------------|
||o-1-----6----------------------|--9-----------(9)------------|
||--------4----------------------|--7-----------(7)------------|


                                1.
                                       ~~~~~~~~~~~~~~
   E  +E   E  E  E  +E   E  E    E  E  Q   +Q    +Q
|-----------------------------|-------------------------||
|-14-(14)-14-14---------------|------------------------o||
|---------------15-(15)-15-15-|-16-15-13--(13)--(13)----||
|-----------------------------|-------------------------||
|-----------------------------|------------------------o||
|-----------------------------|-------------------------||
|
|  H             H               E  E  Q   +Q    +Q
|-----------------------------|-------------------------||
|-----------------------------|------------------------o||
|--6--------------------------|-------------------------||
|--6-------------8------------|--9--8--6---(6)---(6)----||
|--4-------------8------------|--9--8--6---(6)---(6)---o||
|----------------6------------|--7S=6--4---(4)---(4)----||


  2.                                                  Q=200
   E      E                Q         +Q           +Q
|---------------------------------------------------------|
|-------------------------14--------(14)---------(14)-----|
|-16-----15---------------13--------(13)---------(13)-----|
|---------------------------------------------------------|
|---------------------------------------------------------|
|---------------------------------------------------------|
|
|  E      E                Q         +Q           +Q
|---------------------------------------------------------|
|---------------------------------------------------------|
|---------------------------------------------------------|
|--6------8---------------11--------(11)---------(11)-----|
|--6------8---------------11--------(11)---------(11)-----|
|--7S=====6----------------9---------(9)----------(9)-----|


 Guitar Break
   q
|-------------------------------------------------|
|-------------------------------------------------|
|--8----------------------------------------------|
|--8----------------------------------------------|
|--6----------------------------------------------|
|-------------------------------------------------|
|
|  |---------8----------|  |---------8----------|
|  E  E  E  E  E  E  E  E  E  E  E  E  E  E  E  E
|-------------------------------------------------|
|-------------------------------------------------|
|-------------------------------------------------|
|-13-13-13-13-13-13-13-13-15-15-15-15-16-16-16-16-|
|-------------------------------------------------|
|-------------------------------------------------|


|---------------------------------------------------|
|---------------------------------------------------|
|---------------------------------------------------|
|---------------------------------------------------|
|---------------------------------------------------|
|---------------------------------------------------|
|
|  |---------8----------|  |---------8----------|
|  E  E  E  E  E  E  E  E  E  E  E  E  E  E  E  E
|---------------------------------------------------|
|---------------------------------------------------|
|-13-13-13-13-13-13-13-13---------------------------|
|-------------------------16-16-16-16-16-16-16-16---|
|---------------------------------------------------|
|---------------------------------------------------|


   q
|-------------------------------------------------|
|-------------------------------------------------|
|--8----------------------------------------------|
|--8----------------------------------------------|
|--6----------------------------------------------|
|-------------------------------------------------|
|
|  |---------8----------|  |---------8----------|
|  E  E  E  E  E  E  E  E  E  E  E  E  E  E  E  E
|-------------------------------------------------|
|-------------------------------------------------|
|-------------------------------------------------|
|-13-13-13-13-13-13-13-13-15-15-15-15-16-16-16-16-|
|-------------------------------------------------|
|-------------------------------------------------|


|---------------------------------------------------|
|---------------------------------------------------|
|---------------------------------------------------|
|---------------------------------------------------|
|---------------------------------------------------|
|---------------------------------------------------|
|
|  |---------8----------|  |---------8----------|
|  E  E  E  E  E  E  E  E  E  E  E  E  E  E  E  E
|---------------------------------------------------|
|---------------------------------------------------|
|-13-13-13-13-15-15-15-15-13-13-13-13---------------|
|-------------------------------------16-16-16-16---|
|---------------------------------------------------|
|---------------------------------------------------|


   q
|-------------------------------------------------|
|-------------------------------------------------|
|-------------------------------------------------|
|--9----------------------------------------------|
|--9----------------------------------------------|
|--7----------------------------------------------|
|
|  |---------8----------|  |---------8----------|
|  E  E  E  E  E  E  E  E  E  E  E  E  E  E  E  E
|-------------------------------------------------|
|-------------------------------------------------|
|-------------------------------------------------|
|-------------------------15-15-15-15-13-13-13-13-|
|-14-14-14-14-14-14-14-14-------------------------|
|-------------------------------------------------|


                             Q                 q
|-------------------------|--------------------------|
|-------------------------|--------------------------|
|-------------------------|--------------------------|
|-------------------------|--8-----------------8-----|
|-------------------------|--8-----------------8-----|
|-------------------------|--7-----------------6-----|
|
|  |---------8----------|    |---------8----------|
|  E  E  E  E  E  E  E  E    E  E  E  E  E  E  E  E
|-------------------------|--------------------------|
|-------------------------|--------------------------|
|-------------------------|--------------------------|
|-16-16-16-16-16-16-16-16-|-15-15-15-15-15-15-15-15--|
|-------------------------|--------------------------|
|-------------------------|--------------------------|


   q
|-------------------------------------------------|
|-------------------------------------------------|
|-------------------------------------------------|
|--6----------------------------------------------|
|--6----------------------------------------------|
|--4----------------------------------------------|
|
|  |---------8----------|  |---------8----------|
|  E  E  E  E  E  E  E  E  E  E  E  E  E  E  E  E
|-------------------------------------------------|
|-------------------------------------------------|
|-------------------------------------------------|
|-------------------------------------------------|
|-11-11-11-11-11-11-11-11-13-13-13-13-14-14-14-14-|
|-------------------------------------------------|


   H                         Q           Q
|-------------------------|--------------------------|
|-------------------------|--------------------------|
|-------------------------|--7-----------------------|
|--8----------------------|--7-----------8-----------|
|--8----------------------|--5-----------8-----------|
|--6----------------------|--------------6-----------|
|
|  |---------8----------|    |---------8----------|
|  E  E  E  E  E  E  E  E    E  E  E  E  E  E  E  E
|-------------------------|--------------------------|
|-------------------------|--------------------------|
|-------------------------|--------------------------|
|-11-11-11-11-13-13-13-13-|-12-12-12-12--------------|
|-------------------------|-------------13-13-13-13--|
|-------------------------|--------------------------|


  PM--------------------------------------------------------------|
  |------8------| |------8------|   |------8------| |------8------|
  E E E E E E E E E E E E E E E E   E E E E E E E E E E E E E E E E
|---------------------------------|------------------------------------|
|---------------------------------|------------------------------------|
|---------------------------------|------------------------------------|
|---------------------------------|------------------------------------|
|-6-6-6-6-6-6-6-6-6-6-6-6-6-6-6-6-|-6-6-6-6-6-6-6-6-6-6-6-6-6-6-6-6----|
|---------------------------------|------------------------------------|
|
| |------8------| |------8------|   |------8------| |-------8-------|
| E E E E E E E E E E E E E E E E   E E E E E E E E E E E E E E E E E
|---------------------------------|------------------------------------|
|---------------------------------|------------------------------------|
|---------------------------------|------------------------------------|
|---------------------------------|-6-6-6-6-6-6-6-6--------------------|
|-6-6-6-6-6-6-6-6-8-8-8-8-9-9-9-9-|-----------------9-9-9-9-9-9-9-9-9--|
|---------------------------------|------------------------------------|


  PM--------------------------------------------------------------|
  |------8------| |------8------|   |------8------| |------8------|
  E E E E E E E E E E E E E E E E   E E E E E E E E E E E E E E E E
|---------------------------------|-----------------------------------|
|---------------------------------|-----------------------------------|
|---------------------------------|-----------------------------------|
|---------------------------------|-----------------------------------|
|-6-6-6-6-6-6-6-6-6-6-6-6-6-6-6-6-|-6-6-6-6-6-6-6-6-6-6-6-6-6-6-6-6---|
|---------------------------------|-----------------------------------|
|
| |------8------| |------8------|   |------8------| |------8------|
| E E E E E E E E E E E E E E E E   E E E E E E E E E E E E E E E E
|---------------------------------|-----------------------------------|
|---------------------------------|-----------------------------------|
|---------------------------------|-----------------------------------|
|---------------------------------|-6-6-6-6-8-8-8-8-6-6-6-6-----------|
|-6-6-6-6-6-6-6-6-8-8-8-8-9-9-9-9-|-------------------------9-9-9-9---|
|---------------------------------|-----------------------------------|


  PM----------------------------------------------|
  |------8------| |------8------|   |------8------|
  E E E E E E E E E E E E E E E E   E E E E E E E E   Q       Q
|---------------------------------|-----------------|------------------|
|---------------------------------|-----------------|------------------|
|---------------------------------|-----------------|------------------|
|---------------------------------|-----------------|-8-------8--------|
|---------------------------------|-----------------|-8-------8--------|
|-7-7-7-7-7-7-7-7-7-7-7-7-7-7-7-7-|-7-7-7-7-7-7-7-7-|-7-------6--------|
|
| |------8------| |------8------|   |------8------|   |------8------|
| E E E E E E E E E E E E E E E E   E E E E E E E E   E E E E E E E E
|---------------------------------|-----------------|------------------|
|---------------------------------|-----------------|------------------|
|---------------------------------|-----------------|------------------|
|---------------------------------|-----------------|------------------|
|-----------------8-8-8-8-6-6-6-6-|-9-9-9-9-9-9-9-9-|-8-8-8-8-8-8-8-8--|
|-7-7-7-7-7-7-7-7-----------------|-----------------|------------------|


  PM----------------------------------------------|
  |------8------| |------8------|   |------8------|
  E E E E E E E E E E E E E E E E   E E E E E E E E   Q       Q
|---------------------------------|-----------------|------------------|
|---------------------------------|-----------------|------------------|
|---------------------------------|-----------------|-7----------------|
|---------------------------------|-----------------|-7-------8--------|
|---------------------------------|-----------------|-5-------8--------|
|-4-4-4-4-4-4-4-4-4-4-4-4-4-4-4-4-|-6-6-6-6-6-6-6-6-|---------6--------|
|
| |------8------| |------8------|   |------8------|   |------8------|
| E E E E E E E E E E E E E E E E   E E E E E E E E   E E E E E E E E
|---------------------------------|-----------------|------------------|
|---------------------------------|-----------------|------------------|
|---------------------------------|-----------------|------------------|
|---------------------------------|-----------------|------------------|
|---------------------------------|-4-4-4-4-6-6-6-6-|-5-5-5-5----------|
|-4-4-4-4-4-4-4-4-6-6-6-6-7-7-7-7-|-----------------|---------6-6-6-6--|


   Out-Chorus
    H    +Q   Q    H    +H       H    +Q    Q    H    +H
||---------------|-------------|---------------|-------------|
||o--------------|-------------|---------------|-------------|
||--8----(8)-----|-------------|---------------|-------------|
||--8----(8)--6--|-8----(8)----|-9----(9)--11--|-8----(8)----|
||o-6----(6)--6--|-8----(8)----|-9----(9)--11--|-8----(8)----|
||--6----(6)--4--|-6----(6)----|-7----(7)---9--|-6----(6)----|
|
|   H    +Q   Q    H    +H       H    +Q    Q    H    +H
||---------------|-------------|---------------|-------------|
||o--------------|-------------|---------------|-------------|
||--8----(8)-----|-------------|---------------|-------------|
||--8----(8)--6--|-8----(8)----|-9----(9)--11--|-8----(8)----|
||o-6----(6)--6--|-8----(8)----|-9----(9)--11--|-8----(8)----|
||--6----(6)--4--|-6----(6)----|-7----(7)---9--|-6----(6)----|


  PM-----------------------------------------------------------------------
  S S S S  S  S S S S S S S  S  S S S   S S S S  S  S S S S S S S  S  S S S
|-------------------------------------|------------------------------------
|-------------------------------------|------------------------------------
|-------------------------------------|------------------------------------
|-------------------------------------|------------------------------------
|-2-2-2-2--2--2-2-2-4-4-4-4--4--4-4-4-|-1-1-1-1--1--1-1-1------------------
|-------------------------------------|-------------------2-2-2-2--2--2-2-2
|
| ~                 ~                   ~                 ~
| Q       +Q        Q       +Q          Q       +Q        Q       +Q
|-------------------------------------|------------------------------------
|-------------------------------------|------------------------------------
|-------------------------------------|------------------------------------
|-------------------------------------|------------------------------------
|-2-------(2)-------4-------(4)-------|-1-------(1)------------------------
|-------------------------------------|-------------------2-------(2)------


                                        1.
 -----------------------------------|
  S S S S  S  S S S S S S S  S  S S S   H    +Q   +Q
|-------------------------------------|-----------------||
|-------------------------------------|----------------o||
|-------------------------------------|-3----(3)--(3)---||
|-------------------------------------|-3----(3)--(3)---||
|-------------------------------------|-1----(1)--(1)--o||
|-4-4-4-4--4--4-4-4-1-1-1-1--1--1-1-1-|-----------------||
|
| ~                 ~
| Q       +Q        Q       +Q          H    +Q   +Q
|-------------------------------------|-----------------||
|-------------------------------------|----------------o||
|-------------------------------------|-3----(3)--(3)---||
|-------------------------------------|-3----(3)--(3)---||
|-------------------------------------|-1----(1)--(1)--o||
|-4-------(4)-------1-------(1)-------|-----------------||


  2.
                ~~~
  Q  +Q   +Q   +E
|---------------------|
|---------------------|
|---------------------|
|-1--(1)--(1)--(1)----|
|-1--(1)--(1)--(1)----|
|---------------------|
|
|               ~~~
| Q  +Q   +Q   +E
|---------------------|
|---------------------|
|---------------------|
|-1--(1)--(1)--(1)----|
|-1--(1)--(1)--(1)----|
|---------------------|


   Outro
    E E E E  E  E E E   E E E E  E  E E E
||--------------------|-------------------|
||o-------------------|-------------------|
||--------------------|-------------------|
||-----------6--------|----------6--------|
||o-6-9-8-6-----9-8-6-|---9-8-6-----9-8-6-|
||--------------------|-7-----------------|
|
|   H       +H          H       +H
||--------------------|-------------------|
||o-------------------|-------------------|
||--8-------(8)-------|-------------------|
||--8-------(8)-------|-9-------(9)-------|
||o-6-------(6)-------|-9-------(9)-------|
||--------------------|-7-------(7)-------|


  E E E E  E  E E E   E E E E  E  E E E
|-------------------|---------------------||
|-------------------|--------------------o||
|-------------------|---------------------||
|----------6--------|----------8--6-------||
|---9-8-6-----9-8-6-|---9-8-9-------9-8--o||
|-4-----------------|-6-------------------||
|
| H       +H          H       +H
|-------------------|---------------------||
|-------------------|--------------------o||
|-------------------|---------------------||
|-6-------(6)-------|-8-------(8)---------||
|-6-------(6)-------|-8-------(8)--------o||
|-4-------(4)-------|-6-------(6)---------||


     E  E  E  E  E  E  E  E    E  E  E  E  E  E  E  E
||--------------------------|-------------------------|
||o-------------------------|-------------------------|
||--11----10-11-13-11-10----|-11----10-11-13-11-10----|
||-----13----------------13-|----13----------------13-|
||o-------------------------|-------------------------|
||--------------------------|-------------------------|
|
|    W                         W
||--------------------------|-------------------------|
||o-------------------------|-------------------------|
||---8----------------------|-------------------------|
||---8----------------------|--9----------------------|
||o--6----------------------|--9----------------------|
||--------------------------|--7----------------------|


                                          1.
   E  E  E  E  E  E  E  E    E  E  E  E    E  E  E  E
|-------------------------|-------------|--------------||
|-------------------------|-------------|-11----------o||
|-11----10-11-13-11-10----|-------10-11-|----13-11-10--||
|----13----------------13-|----13-------|--------------||
|-------------------------|-13----------|-------------o||
|-------------------------|-------------|--------------||
|
|  W                         H             H
|-------------------------|-------------|--------------||
|-------------------------|-------------|-------------o||
|-------------------------|-------------|--7-----------||
|--6----------------------|--8----------|--7-----------||
|--6----------------------|--8----------|--5----------o||
|--4----------------------|--6----------|--------------||


  2.
                   ~~~~~~~~~~~~~~~~~~~~~~~~                        ~~~
   E  E  E  E      W    +H      W      +H        S   S  S  +E      W
|--------------|-------------|----------------|--------------------------|
|-11-----------|-------------|----------------|--------------------------|
|----13-11-10--|--11---(11)--|-10-----(10)----|-10h=11p10-(10)-----------|
|--------------|-------------|----------------|-------------------13-----|
|--------------|-------------|----------------|--------------------------|
|--------------|-------------|----------------|--------------------------|
|
|  H               W    +H     +W      +H       +H                +W
|--------------|-------------|----------------|--------------------------|
|--------------|-------------|----------------|--------------------------|
|--7-----------|---8----(8)--|-(8)-----(8)----|-(8)---------------(8)----|
|--7-----------|---8----(8)--|-(8)-----(8)----|-(8)---------------(8)----|
|--5-----------|---6----(6)--|-(6)-----(6)----|-(6)---------------(6)----|
|--------------|-------------|----------------|--------------------------|


    ~~~~~~~~~~~~~~~~~~~~~~~~~~~~~~~~~~~~~~~
   +W        +W           +W           +W
|---------|-----------|-------------|---------|
|---------|-----------|-------------|---------|
|---------|-----------|-------------|---------|
|-(13)----|-(13)------|--(13)-------|-(13)----|
|---------|-----------|-------------|---------|
|---------|-----------|-------------|---------|
|
|  +W        +W           +W           +W
|---------|-----------|-------------|---------|
|---------|-----------|-------------|---------|
|--(8)----|--(8)------|---(8)-------|--(8)----|
|--(8)----|--(8)------|---(8)-------|--(8)----|
|--(6)----|--(6)------|---(6)-------|--(6)----|
|---------|-----------|-------------|---------|


Duration Legend
---------------
W - whole; H - half; Q - quarter; E - 8th; S - 16th; T - 32nd; X - 64th; 
a - acciaccatura
+ - note tied to previous; . - note dotted; .. - note double dotted
Uncapitalized letters represent notes that are staccato (1/2 duration)
Irregular groupings are notated above the duration line
Duration letters will always appear directly above the note/fret number
 it represents the
duration for.  Duration letters with no fret number below them represent 
rests.  Multi-
bar rests are notated in the form Wxn, where n is the number of bars to
rest for.  Low
melody durations appear below the staff

Tablature Legend
----------------
 h   - hammer-on
 p   - pull-off
 b   - bend
 pb  - pre-bend
 r   - bend release (if no number after the r, then release immediately)
 /\  - slide into or out of (from/to "nowhere")
 s   - legato slide
 S   - shift slide
  - natural harmonic
[n]  - artificial harmonic
n(n) - tapped harmonic
 ~   - vibrato
 tr  - trill
 T   - tap
 TP  - trem. picking
 PM  - palm muting
\n/  - tremolo bar dip; n = amount to dip
 \n  - tremolo bar down
 n/  - tremolo bar up
/n\  - tremolo bar inverted dip
 =   - hold bend; also acts as connecting device for hammers/pulls
 <>  - volume swell (louder/softer)
 x   - on rhythm slash represents muted slash
 o   - on rhythm slash represents single note slash

Misc Legend
-----------
 |  - bar
||  - double bar
||o - repeat start
o|| - repeat end
*|  - double bar (ending)
 :  - bar (freetime)
 $  - Segno
 &  - Coda
Tempo markers -  = BPM(8/16=s8/s16), 
where s8 = swing 8ths, s16 = swing 16ths
Добавлено: 08.06.2012
Вам также может быть интересно:
Другие материалы по этой песне:

Страница создана 07.05.2012
http://primanota.ru/azeroth/campaa-al-desierto-chords.htm
Привет, Гость.
Предлагаем пройти революционный курс по гитаре.
Подарок от PrimaNota.Ru, забирай!