PrimaNota.ru - самый крупный в мире бесплатный архив песенных текстов, аккордов, табулатур и нот


Ayurveda - Polyphagia - таба, видео

Регистрация Запомнить меня
Войти через:  Facebook Google Twitter Vk Yandex Mail.ru

Ayurveda - Polyphagia - таба, видео

Печатать
Просмотров: 147
Уроки эстрадного вокала в Санкт-Петербурге
Song : Polyphagia
Artist: Ayurveda
Album: Down The Staircase (2009)
Tabbed by Gagan Atreya.

Tuning: The song is in Eb with the low E string dropped down to Db(or C#). The Gb string 
tuned up to Ab which makes it easier to play the signature tudu tu tudu.. lick


Intro. Shikhar:

Eb------------------------------------------------------------------|
Bb------------------------------------------------------------------|
Ab------------------------------------------------------------------|
Db------------------------------------------------------------------|
Ab------------------------------------------------------------------|
Db--0-0--pm0-0-0---2/11-11h12--11---11-pm12 11-h12-11-5/7\2\0-------|


Lick 2. 00:38. Diwas: ([Rhythm - Lick 4 (see below)]
Eb---------------------------------------------------------------------|
Bb---------------------------------------------------------------------|
Ab---10/12-12-pm12-7----7/10-10-pm10-5---5/7-7-pm7-4---4/5-5-pm5-0-----|
Db---------------------------------------------------------------------|
Ab---10/12-12-pm12-7----7/10-10-pm10-5---5/7-7-pm7-4---4/5-5-pm5-0-----|
Db---------------------------------------------------------------------|


Eb----------------------------------------------------------------|
Bb----------------------------------------------------------------|
Ab--10/12-12-pm12-7---7/10/12-12----7/10-5/7-4/7-5----------------|
Db----------------------------------------------------------------|
Ab--10/12-12-pm12-7---7/10/12-12----7/10-5/7-4/7-5----------------|
Db----------------------------------------------------------------|

Eb---------------------------------------------------------------------|
Bb---------------------------------------------------------------------|
Ab---10/12-12-pm12-7----7/10-10-pm10-5---5/7-7-pm7-4---4/5-5-pm5-0-----|
Db---------------------------------------------------------------------|
Ab---10/12-12-pm12-7----7/10-10-pm10-5---5/7-7-pm7-4---4/5-5-pm5-0-----|
Db---------------------------------------------------------------------|

Eb-----------------------------------------------------------|
Bb-----------------------------------------------------------|
Ab--10/12-12-pm12-7---10/12/15-----10/12/15\10/12-7/10\5-----|
Db-----------------------------------------------------------|
Ab--10/12-12-pm12-7---10/12/15-----10/12/15\10/12-7/10\5-----|
Db-----------------------------------------------------------|


Lick 3. 00:57 Shikhar: (Rhythm - Intro lick)
Eb----------------------------------------------------------------------|
Bb----------------------------------------------------------------------|
Ab----4h5p4-----------4h5p4---------------------------------------------|
Db----------7--4-------------6p4-4-4/6-7/9------------------------------|
Ab----------------------------------------------------------------------|
Db----------------------------------------------------------------------|
Repeat 4 times.


Lick 4. 01:15----------------------------------------------| Chyak-chyak-chyak-chyak part:
Eb---------------------------------------------------------|
Bb---------------------------------------------------------|
Ab---------------------------------------------------------|
Db---------------------------------------------------------|
Ab----X-X-XX--X-X-XX--X-X-XX--X-X-XX-----------------------|
Db----X-X-XX--X-X-XX--X-X-XX--X-X-XX-----------------------|

01:20. Diwas: (Rhythm - lick 4)
Eb---------------------------------------------------------------------|
Bb---------------------------------------------------------------------|
Ab---10/12-12-pm12-7----7/10-10-pm10-5---5/7-7-pm7-4---4/5-5-pm5-0-----|
Db---------------------------------------------------------------------|
Ab---10/12-12-pm12-7----7/10-10-pm10-5---5/7-7-pm7-4---4/5-5-pm5-0-----|
Db---------------------------------------------------------------------|


Eb----------------------------------------------------------------|
Bb----------------------------------------------------------------|
Ab--10/12-12-pm12-7---7/10/12-12----7/10-5/7-4/7-5----------------|
Db----------------------------------------------------------------|
Ab--10/12-12-pm12-7---7/10/12-12----7/10-5/7-4/7-5----------------|
Db----------------------------------------------------------------|

Eb---------------------------------------------------------------------|
Bb---------------------------------------------------------------------|
Ab---10/12-12-pm12-7----7/10-10-pm10-5---5/7-7-pm7-4---4/5-5-pm5-0-----|
Db---------------------------------------------------------------------|
Ab---10/12-12-pm12-7----7/10-10-pm10-5---5/7-7-pm7-4---4/5-5-pm5-0-----|
Db---------------------------------------------------------------------|

Eb------------------------------------------------------------|
Bb------------------------------------------------------------|
Ab--10/12-12-pm12-7---10/12/15-----12/15/17\12/15-10/12\7-----|
Db------------------------------------------------------------|
Ab--10/12-12-pm12-7---10/12/15-----12/15/17\12/15-10/12\7-----|
Db------------------------------------------------------------|

01:38. Shikhar: (Rhythm - Intro lick)
Eb-----------------------------------------------------------|
Bb-----------------------------------------------------------|
Ab----4h5p4-----------4h5p4----------------------------------|
Db----------7--4-------------6p4-4-4/6-7/9-------------------|
Ab-----------------------------------------------------------|
Db-----------------------------------------------------------|
 Repeat 4 Times




01:57. Main riff (Played twice)
Eb--------------------------------------------------|
Bb--------------------------------------------------|
Ab--------------------------------------------------|
Db--------------------------------------------------|
Ab-0-0--0-2/11--11-11-12-5/7------------------------|
Db-0-0--0-2/11--11-11-12-5/7------------------------|

Eb----------------------------------------------------------|
Bb----------------------------------------------------------|
Ab----------------------------------------------------------|
Db----------------------------------------------------------|
Ab-0-0--0-2/11--11-11--5/7--2/4-----------------------------|
Db-0-0--0-2/11--11-11--5/7--2/4-----------------------------|


Then the slow part.

02:16:
Eb--0----0----0----0----------------------------------------|
Bb--5----3----0----0----------------------------------------|
Ab--5----1----0----0----------------------------------------|
Db--0----0----2----3----------------------------------------|
Ab--5----1----0----0----------------------------------------|
Db----------------------------------------------------------|


Eb--0----0----0----0----------------------------------------|
Bb--5----3----0----0----------------------------------------|
Ab--5----1----0----0----------------------------------------|
Db--0----0----2----3----------------------------------------|
Ab--5----1----0----0----------------------------------------|
Db----------------------------------------------------------|


(^^I am not exactly sure about this but this sounds pretty similar. I suggest playing 
these chords and listening to the song until you figure out when the actual chord changes 
place.)

02:57:

Eb----------------------------------------------------------|
Bb----15--15-----15--15----------15--15---------------------|
Ab----17--17-----17--17----------17--17---------------------|
Db----------------------------------------------------------|
Ab------------XX------------XX------------------------------|
Db------------XX------------XX------------------------------|
(Listen to the song to see how many times its done).



Then @ 03:25, Shikhar starts playing a slight variation of Lick 3:

03:25. Lick 5: (Whered everyone go…):
Eb-------------------------------------------------------------|
Bb-------------------------------------------------------------|
Ab--4h5p4------------------4h5p4-------------------------------|
Db-------7-6p4-4-4/6-7/9---------7-6p4-4--4/6---7-6p4----------|
Ab-------------------------------------------------------------|
Db-------------------------------------------------------------|
   (Listen to the song to see how many times its done).


03: 44 - The main riff once again.


04:03 - Lick 4.


After this, starting at 04:17, Shikhar goes back to playing Lick 5 while Diwas fiddles 
with his guitar (what he does I have no clue about). This goes on for a while until the 
comes to an end with the top two open strings (Db5 I guess).


Thank You. Tabbing is a fucking bitch.
Добавлено: 01.06.2012
Вам также может быть интересно:
Другие материалы по этой песне:
  • Аккорды и текст

Страница создана 01.06.2012
http://primanota.ru/ayurveda/polyphagia-chords.htm
Привет, Гость.
Предлагаем пройти революционный курс по гитаре.
Подарок от PrimaNota.Ru, забирай!