PrimaNota.ru - самый крупный в мире бесплатный архив песенных текстов, аккордов, табулатур и нот


Ayurveda - Hjarmful Armful - таба, видео

Регистрация Запомнить меня
Войти через:  Facebook Google Twitter Vk Yandex Mail.ru

Ayurveda - Hjarmful Armful - таба, видео

Печатать
Просмотров: 75
Ayurveda-Harmful Armful
Tabbed by-Ameet Shrestha

Tuning
D#
A#
F#
C#
G#
D#

PM=Palm Mute
PM Re=Palm Mute Release
WP=Wah Padal



Intro:
               
   --------------PM------------
E|--------------------------------------------------|\
B|--------------------------------------------------| \---------
G|--------------------------------------------------|  \  Play |
D|----------5---------------2-2---------------------|  /   4X  |
A|-7--5--7-----7--5--7--5---2-2---------------------| /---------
E|--------------------------0-0---------------------|/


  ----PM Re--------------   PM     
E|--------------------------------------------------|\
B|--------------------------------------------------| \---------
G|--------------------------------------------------|  \  Play |
D|----------5---------------2-2---------------------|  /   7X  |
A|-7--5--7-----7--5--7--5---2-2---------------------| /---------
E|--------------------------0-0---------------------|/      


E|--------------------------------------------------|
B|--------------------------------------------------|
G|--------------------------------------------------|  
D|-----------5----------------2--1------------------| 
A|-7--5---7------7--5--7--5---2--1------------------|
E|----------------------------0--0------------------|   

   --PM-      ---PM----      --PM---
E|----------------------------------------------------------|\
B|----------------------------------------------------------| \---------
G|----------------------------------------------------------|  \  Play |
D|-2-2-2------2-2-2-2-2------2-2-2-2------------------------|  /   2X  |
A|-2-2-2------2-2-2-2-2------2-2-2-2----2-1-2-4-2-1---------| /---------
E|-0-0-0------0-0-0-0-0------0-0-0-0----------------3-2-0---|/      
              ^ V  

   -PM-              ---PM----   -WP-     ---PM--
E|-----------------7---------------------------------7\5----------------------------|\
B|--------5----8-----------------5--3---------------------8--5----------------------| \---------
G|----------------------------------------------------------------------------------|  \  Play |
D|-2-2-2-------------2-2-2-2-2------------2-2-2-2-----------------------------------|  /   2X  |
A|-2-2-2-------------2-2-2-2-2------------2-2-2-2---------------2-1-2-4-2-1---------| /---------
E|-0-0-0-------------0-0-0-0-0------------0-0-0-0---------------------------3-2-0---|/      
                     ^ V  

E|---------------------------------------------------------0--------0------0---------0-------|
B|-1--------0-1--0h1---------0-1------------0-1---0-1----------1-------1-------1---------1---| 
G|-2--------2-2-------2------2-2---------2--------2-2-------------2-------2-------2----------|   
D|-2--------2-2----------2---2-2------2-----------2-2----------------------------------------|  
A|-0--------0-0--------------0-0------------------0-0----------------------------------------| 
E|-------------------------------------------------------------------------------------------| 


   PM                               
E|------------------------------------|\
B|------------------------------------| \---------
G|------------------------------------|  \  Play |
D|-2-2--------------5-----------------|  /   4X  |
A|-2-2----7--5---7-----7--5--7--5-----| /---------
E|-0-0--------------------------------|/    


           --PM-     ---PM----      --PM---
E|-----------------------------------------------------------------|\
B|-----------------------------------------------------------------| \---------
G|-----------------------------------------------------------------|  \  Play |
D|-2-1-----2-2-2-----2-2-2-2-2------2-2-2-2------------------------|  /   2X  |
A|-2-1-----2-2-2-----2-2-2-2-2------2-2-2-2----2-1-2-4-2-1---------| /---------
E|-0-0-----0-0-0-----0-0-0-0-0------0-0-0-0----------------3-2-0---|/      
                     ^ V 
  
   -PM-              ---PM----   -WP-     ---PM--
E|-----------------7---------------------------------7\5----------------------------|\
B|--------5----8-----------------5--3---------------------8--5----------------------| \---------
G|----------------------------------------------------------------------------------|  \  Play |
D|-2-2-2-------------2-2-2-2-2------------2-2-2-2-----------------------------------|  /   2X  |
A|-2-2-2-------------2-2-2-2-2------------2-2-2-2---------------2-1-2-4-2-1---------| /---------
E|-0-0-0-------------0-0-0-0-0------------0-0-0-0---------------------------3-2-----|/      
                     ^ V  


    -------------------------------PM------------------------------
E|-----------------------------------------------------------------------|
B|-----------------------------------------------------------------------|
G|-----------------------------------------------------------------------| 
D|--3-3-3-3-3-3-3-3-3-3-3-3-3-3-3-3-3-3-3-3-3-3-3-3-3-3-3-3-3-3-3-3------|
A|--3-3-3-3-3-3-3-3-3-3-3-3-3-3-3-3-3-3-3-3-3-3-3-3-3-3-3-3-3-3-3-3------|
E|--0-0-0-0-0-0-0-0-0-0-0-0-0-0-0-0-0-0-0-0-0-0-0-0-0-0-0-0-0-0-0-0------|      
                       

   -------------------------------PM-----------------------
E|-----------------------------------------------------------------------|
B|-----------------------------------------------------------------------|
G|-----------------------------------------------------------------------| 
D|--2-2-2-2-2-2-2-2-2-2-2-2-2-2-2-2-2-2-2-2-2-2-2-2-2-2-2-2----3-2-------|
A|--2-2-2-2-2-2-2-2-2-2-2-2-2-2-2-2-2-2-2-2-2-2-2-2-2-2-2-2----3-2-------|
E|--0-0-0-0-0-0-0-0-0-0-0-0-0-0-0-0-0-0-0-0-0-0-0-0-0-0-0-0----0-0-------|      


   -------------------------------PM-------
E|-------------------------------------------|
B|-------------------------------------------|
G|-------------------------------------------|
D|--2-2-2----2-2-2----2-2-2-2-2-2-2-2-2-2-2--|
A|--2-2-2----2-2-2----2-2-2-2-2-2-2-2-2-2-2--|
E|--0-0-0----0-0-0----0-0-0-0-0-0-0-0-0-0-0--|      

E|--------------------------------------------------------------------------------------------------|
B|--------------------------------------------------------------------------------------------------|
G|--------------------------------------------------------------------------------------------------|
D|--2-2-2----2-2-2-2-2-2-2-2-2-2-2----2-2-2-----2-2-2-2-2-2-2-2-2-2-2----2-2-2----2-2-2-2-2-2-------|
A|--2-2-2----2-2-2-2-2-2-2-2-2-2-2----2-2-2-----2-2-2-2-2-2-2-2-2-2-2----2-2-2----2-2-2-2-2-2-------|
E|--0-0-0----0-0-0-0-0-0-0-0-0-0-0----0-0-0-----0-0-0-0-0-0-0-0-0-0-0----0-0-0----0-0-0-0-0-0---12/-|
 
   --PM--           --PM----         --PM-           --PM---
E|---------------------------------------------------------------------|\
B|----------------------------------------------------------------5----| \---------
G|---------4-3-------------------4----------4-3---------------3-4------|  \  Play |
D|--2-2-2------5-2--2-2-2-2-2--5-----2-2-2------5-2--2-2-2-2-----------|  /   2X  |
A|--2-2-2-----------2-2-2-2-2--------2-2-2-----------2-2-2-2-----------| /---------
E|--0-0-0-----------0-0-0-0-0--------0-0-0-----------0-0-0-0-----------|/                   
 

   --PM--           --PM----         --PM-           --PM---
E|---------------------------------------------------------------------|\
B|---------------------------------------------------------------------| \---------
G|---------4-3-------------------4----------4-3------------------------|  \  Play |
D|--2-2-2------5-2--2-2-2-2-2--5-----2-2-2------5-2--2-2-2-2-------2---|  /   2X  |
A|--2-2-2-----------2-2-2-2-2--------2-2-2-----------2-2-2-2---1-2-----| /---------
E|--0-0-0-----------0-0-0-0-0--------0-0-0-----------0-0-0-0-----------|/          

 
   --PM-      -PM-      -PM-      -PM-
E|-----------------------------------------------------------|\
B|-----------------------------------------------------------| \---------
G|-----------------------------------------------------------|  \  Play |
D|--2-2--------2-2--------2-2--------2-2--3------------------|  /   4X  |
A|--2-2--------2-2--------2-2--------2-2--3------------------| /---------
E|--0-0----12/-0-0----12/-0-0----12/-0-0--0------------------|/  


  --------------PM-------------
E|--------------------------------------------------|\
B|--------------------------------------------------| \---------
G|--------------------------------------------------|  \  Play |
D|----------5---------------2-2---------------------|  /   3X  |
A|-7--5--7-----7--5--7--5---2-2---------------------| /---------
E|--------------------------0-0---------------------|/        

  --------------PM-------------
E|--------------------------------------------------|
B|--------------------------------------------------| 
G|--------------------------------------------------|   
D|----------5---------------2-1---------------------|   
A|-7--5--7-----7--5--7--5---2-1---------------------|
E|--------------------------0-0---------------------|  

     
  ----------------------------------PM------------------------
E|----------------------------------------------------------------|
B|----------------------------------------------------------------|
G|----------------------------------------------------------------|  
D|----------5---------------0-0------------5--------------1-1-----|  
A|-7--5--7-----7--5--7--5---0-0---7--5--7-----7--5--7--5--1-1-----|
E|--------------------------0-0---------------------------0-0-----|    

  ----------------------------------PM------------------------
E|----------------------------------------------------------------|
B|----------------------------------------------------------------|
G|----------------------------------------------------------------|  
D|----------5---------------0-0------------5--------------2-1-----|  
A|-7--5--7-----7--5--7--5---0-0---7--5--7-----7--5--7--5--2-1-----|
E|--------------------------0-0---------------------------0-0-----| 

  ----------------------------------PM------------------------
E|----------------------------------------------------------------|
B|----------------------------------------------------------------|
G|----------------------------------------------------------------|  
D|----------5---------------0-0------------5--------------2-2-----|  
A|-7--5--7-----7--5--7--5---0-0---7--5--7-----7--5--7--5--2-2-----|
E|--------------------------0-0---------------------------0-0-----|  

 ----------------------------------PM-------------------
E|-----------------------------------------------------------------|
B|-----------------------------------------------------------------|
G|-----------------------------------------------------------------|  
D|----------5---------------0-0------------5--------------2--1-----|  
A|-7--5--7-----7--5--7--5---0-0---7--5--7-----7--5--7--5--2--1-----|
E|--------------------------0-0---------------------------0--0-----| 


   PM                               
E|------------------------------------|\
B|------------------------------------| \----------
G|------------------------------------|  \  Play |
D|-2-2--------------5-----------------|  /   2X  |
A|-2-2----7--5---7-----7--5--7--5-----| /---------
E|-0-0--------------------------------|/    


                                 
E|--------------------------------------------------------------------------------------------|
B|--------------------------------------------------------------------------------------------| 
G|-7-7----------------------------------------------------------------------------------------|  
D|-7-7------------5--------------2-2-------------5--------------2-1------------5--------------|  
A|-5-5---7--5--7-----7--5--7--5--2-2----7--5--7-----7--5--7--5--2-1---7--5--7-----7--5--7--5--| 
E|-0-0---------------------------0-0----------------------------0-0---------------------------|   


                               
E|-----------------------------------------------------------------------|
B|-----------------------------------------------------------------------|
G|------------------------------------7-7--------------------------------|  
D|-2-2----------------5---------------7-7------------5--------------2-2--|  
A|-2-2----7--5-----7-----7--5--7--5---5-5--7--5--7------7--5--7--5--2-2--|
E|-0-0--------------------------------0-0---------------------------0-0--|    

E|----------------------------------|
B|----------------------------------|
G|----------------------------------|  
D|-------5---------------------2-1--|  
A|-7--5-----7-----7--5--7--5---2-1--|
E|-----------------------------0-0--|    


    --PM-     ---PM----      --PM---
E|----------------------------------------------------------|\
B|----------------------------------------------------------| \---------
G|----------------------------------------------------------|  \  Play |
D|--2-2-2-----2-2-2-2-2------2-2-2-2------------------------|  /   2X  |
A|--2-2-2-----2-2-2-2-2------2-2-2-2----2-1-2-4-2-1---------| /---------
E|--0-0-0-----0-0-0-0-0------0-0-0-0----------------3-2-0---|/      
              ^ V 

Solo Part
(I haven't tab out solo yet so as soon as I tab it out I'll provide you.)

     --------------------------PM-----------------------------------
E|---------------------------------------------------------------------|
B|---------------------------------------------------------------------| 
G|---------------------------------------------------------------------|  
D|---2-2---2-2---1-0---2-2---1-1---2-2---2-1---2-2---2-1---2-2---2-1---|  
A|---2-2---2-2---1-0---2-2---1-1---2-2---2-1---2-2---2-1---2-2---2-1---|
E|---0-0---0-0---0-0---0-0---0-0---0-0---0-0---0-0---0-0---0-0---0-0---|      
               
    -PM-
E|------------------------------|
B|------------------------------|
G|---------7-7-7----------------|
D|---2-2---7-7-7---2-2-2---2-1--|
A|---2-2---5-5-5---2-2-2---2-1--|
E|---0-0---0-0-0---0-0-0---0-0--|
           V ^ ^   V ^ ^
Добавлено: 27.11.2013
Вам также может быть интересно:
Другие материалы по этой песне:
  • Аккорды и текст

Страница создана 27.11.2013
http://primanota.ru/ayurveda/hjarmful-armful-chords.htm
Привет, Гость.
Предлагаем пройти революционный курс по гитаре.
Подарок от PrimaNota.Ru, забирай!