PrimaNota.ru - самый крупный в мире бесплатный архив песенных текстов, аккордов, табулатур и нот


Ayumi Hamasaki - Who - таба, видео

Регистрация Запомнить меня
Войти через:  Facebook Google Twitter Vk Yandex Mail.ru

Ayumi Hamasaki - Who - таба, видео

Печатать
Просмотров: 178
Уроки эстрадного вокала в Санкт-Петербурге
Who...

Artist : ayumi hamasaki
Composer : Kazuhito Kikuchi
Tabbed by : Xsen


e-9-9-9-10-9---------7^---9-7------------|
B------------10—7-9-----------9-7-7------|
G-----------------------------------9-9—-|
D----------------------------------------|
A----------------------------------------|
E----------------------------------------|

(*) e-9-9-9—--10-9---------7^---9-7----------|
 B------12-----10---7-9----------9-10-10-----|
 G-------------------------------------------|
 D-------------------------------------------|
 A-------------------------------------------|
 E-------------------------------------------|

(~) e----------------------------------------|
 B-5/10-10--10--10—10-9-6—6-----8—10-9-------|
 G------------------------- 7----------------|
 D-------------------------------------------|
 A-------------------------------------------|
 E-------------------------------------------|

(+) e----------------------------------------|
 B-10-10-10-10-9-6-6---8—-10-9---------------|
 G-------------------7-----------------------|
 D-------------------------------------------|
 A-------------------------------------------|
 E-------------------------------------------|

(-) e—---------------------------8------------------10-9--|
 B-10-10-10-10-9-6-6---8---10--9—-11-11-11-11-13----------|
 G-------------------7------------------------------------|
 D--------------------------------------------------------|
 A--------------------------------------------------------|
 E--------------------------------------------------------|

Chorus :

e---------------9---------------------------------------9-8------8-8---|
B-9-11-13-13-11---13----9-11-13-13-11-9---------9-9-9-11----9-11—------|
G---------------------------------------8--8-10------------------------|
D----------------------------------------------------------------------|
A----------------------------------------------------------------------|
E----------------------------------------------------------------------|

----------------9----------------------------------------8------------|
-9-11-13-13-11---13----9-11-13-13-11-9--------9-9-9-9-11—---11-9-9----|
---------------------------------------8--8-10------------------------|
----------------------------------------------------------------------|
----------------------------------------------------------------------|
----------------------------------------------------------------------|

repeat (*)(~)(+)(-)

  e-----8---8----------12^-------------------------------------------|
B-9-11------11—9-11-9-----11-9-9--—7-9-10--10-12-10-9-7----9--10-----|
G------------------------------------------------------9-------------|
D--------------------------------------------------------------------|
A--------------------------------------------------------------------|
E--------------------------------------------------------------------|

e-------9---9-------------13^-------------------------------------|
B-10-12-------12-10-12-10------12-10-10--—8-10-11--11-13-10—10—---|
G-----------------------------------------------------------------|
D-----------------------------------------------------------------|
A-----------------------------------------------------------------|
E-----------------------------------------------------------------|


e---------------9---------------------------------------9-8------8-8-|
B-9-11-13-13-11---13----9-11-13-13-11-9--------9-9-9-11-----9-11—----|
G---------------------------------------8--8-10----------------------|
D--------------------------------------------------------------------|
A--------------------------------------------------------------------|
E--------------------------------------------------------------------|

---------------9------------------------------------------8-----------|
-9-11-13-13-11---13----9-11-13-13-11-9---------9-9-9-9-11—--11-9-9----|
---------------------------------------8--8-10------------------------|
----------------------------------------------------------------------|
----------------------------------------------------------------------|
----------------------------------------------------------------------|

e---------------12--------------------------------------------12-11------11-11-|
B-12-14-16-16-14---16---12-14-16-16-14-12---------12-12-12--14------12-14—-----|
G-----------------------------------------11--11-13----------------------------|
D------------------------------------------------------------------------------|
A------------------------------------------------------------------------------|
E------------------------------------------------------------------------------|

---------------12--------------------------------------------------11----------|
-12-14-16-16-14---16----12-14-16-16-14-12----------12-12-12-12-14—---14-12-12--|
------------------------------------------11--11-13----------------------------|
-------------------------------------------------------------------------------|
-------------------------------------------------------------------------------|
-------------------------------------------------------------------------------|

e-11---9------------------------------11---9--------------------9~----|
B--------12-10-12----10—-12-------------------12-10-12----10—12-------|
G---------------------------10----------------------------------------|
D---------------------------------------------------------------------|
A---------------------------------------------------------------------|
E---------------------------------------------------------------------|

•       END 0F THE TAB *
Добавлено: 08.05.2012
Другие материалы по этой песне:
  • Аккорды и текст

Страница создана 08.05.2012
http://primanota.ru/ayumi-hamasaki/who-chords.htm
Привет, Гость.
Предлагаем пройти революционный курс по гитаре.
Подарок от PrimaNota.Ru, забирай!