PrimaNota.ru - самый крупный в мире бесплатный архив песенных текстов, аккордов, табулатур и нот


Ayumi Hamasaki - Missunderstood - текст песни, таба, видео

Регистрация Запомнить меня
Войти через:  Facebook Google Twitter Vk Yandex Mail.ru

Ayumi Hamasaki - Missunderstood - текст песни, таба, видео

Печатать
Просмотров: 153
Sounded out by Dean Horein.

This is the solo from (Miss)Understood by: Ayumi Hamasaki and Yoshio Nomura.

It is a taping solo (the entire solo). All strings are tuned normal (for the solo), the 
with only one space in between them are triplets. Sorry if it is not fully correct, I 
to sound it out by ear. So I tried my best.

e---------------------------------------------------------------------------|
b---------------------------------------------------------------------------|
g---------------------------------------------------------------------------|
d---------------------------------------------------------------------------|
a-4---4---6---4---6---4---6---4---6---4---6---4---8---4---8---4---8---4---8-|
E---------------------------------------------------------------------------|


e---------------------------------------------------------------------------|
b---------------------------------------------------------------------------|
g---------------------------------------------------------------------------|
d---------------------------------------------------------------------------|
a--4---8---4---11---4---11---4---11---4---11---4---11---4---11---4---13---4-|
E---------------------------------------------------------------------------|


e---------------------------------------------------------------------------|
b---------------------------------------------------------------------------|
g-------------------------------------------------------------------------4-|
d-------------------------4-5-6-4-5-6-4-5-6-4-5-6-4-5-6-4-5-6-4-5-6-4-5-6---|
a--13---13---11---8---6-----------------------------------------------------|
E---------------------------------------------------------------------------|


e---------------------------------------------------------------------------|
b-----------------------------------------------4-5-7-4-5-7-4-5-7-4-5-7-4-5-|
g-5-6-4-5-6-4-5-6-4-5-6-4-5-6-4-5-6-4-5-6-4-5-6-----------------------------|
d---------------------------------------------------------------------------|
a---------------------------------------------------------------------------|
E---------------------------------------------------------------------------|


e-----------------------------------------------------------------------11-[
b-7-4-5-7-4-5-7-4-5-7-4-5-7-4-5-7-4-5-7-4-5-7-4-5-7-4-5-7-4-5-7-4-5-7------[
g--------------------------------------------------------------------------[
d--------------------------------------------------------------------------[
a--------------------------------------------------------------------------[
E--------------------------------------------------------------------------[
Добавлено: 11.05.2012
Другие материалы по этой песне:
  • Аккорды и текст

Страница создана 28.03.2012
http://primanota.ru/ayumi-hamasaki/miss-understood-chords.htm
Привет, Гость.
Предлагаем пройти революционный курс по гитаре.
Подарок от PrimaNota.Ru, забирай!