PrimaNota.ru - самый крупный в мире бесплатный архив песенных текстов, аккордов, табулатур и нот


Ayreon - Time Beyond Time - текст песни, таба, видео

Регистрация Запомнить меня
Войти через:  Facebook Google Twitter Vk Yandex Mail.ru

Ayreon - Time Beyond Time - текст песни, таба, видео

Печатать
Просмотров: 130
                                          Artist - Ayreon
                                         *****************
                                      Song - Time Beyond Time
                                     *************************
                                  Album - Into The Electric Castle 
                                 **********************************
                                        Tabbed By - Ayreon77
                                       **********************


PH = Pitch Harmonics



INTRO - C Em C Em G
******
this is the clear guitar playing in the background
play this when it comes in through out the song. 
[----------14-12-12----------|------------------p---------------------]
[-------------------12-13-14-|----------12----13-12----12-------------]
[-------12-------------------|---h---12----12-------14----12----12----]
[-12-14----------------------|-12-14-------------------------14----14-]
[----------------------------|----------------------------------------]
[----------------------------|----------------------------------------]

                           00:12
[-------------------------|------------------p---------------------14-12-]
[----12-------------------|----------12----13-12----12----------12-------]
[-14----12----12-11-------|---h---12----12-------14----12----12----------]
[----------14-------14----|-12-14-------------------------14-------------]
[----------------------14-|----------------------------------------------]
[-------------------------|----------------------------------------------]


[----------|------------------p--------------------------------h------]
[-12-13-14-|----------12----13-12----12-------------------12-12-13-12-]
[----------|---h---12----12-------14----12----12-------12-------------]
[----------|-12-14-------------------------14----14-12----------------]
[----------|----------------------------------------------------------]
[----------|----------------------------------------------------------]


--------------------------------------------
[Futureman]
 ---------
C                      Em
  From the cities underseas
C                        Em
  To the sky ways in the east
C                          Em
  From the stations on the moon
C                  G 
  To the planet of Neptune
C                     Em
  I'm a sophisticated man
C                       Em
  And you would say I'd understand
C                 Em
  Is it a virtual design
                         Am          Em
  Are we launched into a time beyond time
             F
Space beyond space
         Gm                Bb
  We are lost here in this cyber world
A
Is there no way out


--------------------------------------------
[Knight]
 ------
C                   
I don't understand your words
Em
  They strike as hard as steel
C                                    Em              
I'm sworn to the sacred quest on the isle of Avalon
C
To retrieve the magic chalice
Em
  Which holds the power to heal
C                            G                       
  Only the pure of heart are received into the realm


--------------------------------------------
[Roman]
 -----
          C                          
Just look around you now and tell me what you see
Em
A world full of treachery
C
Skies of silver and seas of gold
Em                                   
The past is young and the future old
C
We're closed in by iron gates
Em
Beyond them Elysium waits
C                                      Am          Em   
Far away on the edge of the world in a time beyond time
             F
Space beyond space
       Gm               Bb
We are lost here in the underworld
A
Is there no way out

--------------------------------------------
FLUTE - Chords Dm Em F G C Bb A X2
******
--------------------------------------------

03:05
GUITAR SOLO 1
**************
[--b-20-br----|--h------------------|--------------b---b-rp-------brp------]
[-20----20-18-|17-18---p-----h------|-------20-22-22--22---20-22-22--20-22-]
[-------------|------19-17-17-19----|-----s--------------------------------]
[-------------|------------------19-|20-20\--------------------------------]
[-------------|---------------------|--------------------------------------]
[-------------|---------------------|--------------------------------------]

                         PH
[---p-----h---------|----21-|-----------------|------------|---------------]
[-20-18-20-22-18~-~-|-------|-----------------|------------|-right------PH-]
[-------------------|-------|-----------------|------------|-palm mute--10-]
[-------------------|-------|-Right palm mute-|--s---5--s--|------7--------]
[-------------------|-20----|-----------------|-5\7----7\8-|-8-10---8------]
[-------------------|-------|-13-12-11-9-10---|------------|---------------]

                                                        may use a whammy here
[---------------|----------------|---------------------|-----------]
[--right mute---|-------10----PH-|--------b-r----------|--h--b-b-r-]
[----------9----|-10-12----10-9--|-9-10-9-----5--s---5-|-7-9-9-9---]
[-12-10-12---10-|----------------|--------------3\7----|-----------]
[---------------|----------------|---------------------|-----------]
[---------------|----------------|---------------------|-----------]

03:32
[----------------|-------------|-------------------------|----------------]
[---s------------|-------------|-------------------------|----------------]
[-15\19-17-------|-------------|-------------------------|----------------]
[----------20-19-|----17-19----|-20-19-17----------17----|-19-17----17----]
[----------------|-20-------20-|----------20-19-20-------|-------20----19-]
[----------------|-------------|----------------------20-|----------------]

                             03:44                 not sure on this part
[----------|----------------|---------------------|-----------h--h---20-~-~]
[-PH-PH-PH-|---s-----s------|---------------------|---------18-20-23-------]
[-9--10-9--|-10\7--10\5-----|--s--h--------h------|---h--h-----------------]
[----------|------------7-7-|-7\12-14\15-14-15-12-|-19-21-22---------------]
[----------|----------------|---------------------|------------------------]
[----------|----------------|---------------------|------------------------]


[-22--22-22-21-22----20-22----|--------------------------------]
[-----------------22-------22-|-This last----------------------]
[-----------------------------|---part of the -----------------]
[-----------------------------|-----solo is beyond-------------]
[-----------------------------|-------me. if anyone can figure-]
[-----------------------------|-----it out, good luck ha ha ---]


--------------------------------------------
[Futureman]
 ---------
C                           Em
  From the birth cry of our race
C                     Em
  To the mysteries of space
C                 Em
  I'm an educated man
C                       G
  And you would say I'd understand

--------------------------------------------

Repeat

------------these---------------------------
[Knight]      Two  
 ------         Verses
                   Are
---------------------Mingled----------------
[Roman]                 in together
 -----

--------------------------------------------
05:19
GUITAR SOLO 2
**************                                            h  p
[---------------15----------|------17-18-20-15----15-17-15-17-15----15----]
[15-18-15-17-18----17-18----|---18-------------18----------------18---17--]
[------------------------17-|17-----------------------------------------18]
[---------------------------|---------------------------------------------]
[---------------------------|---------------------------------------------]
[---------------------------|---------------------------------------------]

                                            h  p
[---------------15----------|-------17-18-17-18-17-------------------]
[15-18-15-17-18----17-18----|----18----------------20-18-17-------17-]
[------------------------17-|-17----------------------------19-18----]
[---------------------------|----------------------------------------]
[---------------------------|----------------------------------------]
[---------------------------|----------------------------------------]

                                                          h  p
[---------------15----------|------17-18-20-15----15-17-15-17-15----15----]
[15-18-15-17-18----17-18----|---18-------------18----------------18---17--]
[------------------------17-|17-----------------------------------------18]
[---------------------------|---------------------------------------------]
[---------------------------|---------------------------------------------]
[---------------------------|---------------------------------------------]

                                            h  p               whammy
[---------------15----------|-------17-18-17-18-17--------------|----]
[15-18-15-17-18----17-18----|----18----------------20-18-17-15-14----]
[------------------------17-|-17-------------------------------------]
[---------------------------|----------------------------------------]
[---------------------------|----------------------------------------]
[---------------------------|----------------------------------------]
                                                           |         |
                                                           |         |
                                                           [---------]
                                                           [---2-----]
                                                           [---------]
                                                           [---------]
                                                           [---------]
                                                           [---------]

               whammy   whammy
     whammy     |        |
[-----|-----18-17----22-21----]
[-18-17-----------------------]
[-----------------------------]
[-----------------------------]
[-----------------------------]
[-----------------------------]
|                             |
|                             |
[-----------------------------]
[--6--5-----11-10----15-14----]
[-----------------------------]
[-----------------------------]
[-----------------------------]
[-----------------------------]


Any mistakes let me know. i.m sure there is.


A great track. kinda tuff in places. Enjoy............
Добавлено: 03.02.2014
Другие материалы по этой песне:
  • Аккорды и текст

Страница создана 27.06.2012
http://primanota.ru/ayreon/time-beyond-time-chords.htm
Привет, Гость.
Предлагаем пройти революционный курс по гитаре.
Подарок от PrimaNota.Ru, забирай!