PrimaNota.ru - самый крупный в мире бесплатный архив песенных текстов, аккордов, табулатур и нот


Ayreon - The Shooting Company Of Captain Frans B Cocq - таба, видео

Регистрация Запомнить меня
Войти через:  Facebook Google Twitter Vk Yandex Mail.ru

Ayreon - The Shooting Company Of Captain Frans B Cocq - таба, видео

Печатать
Просмотров: 176
Уроки эстрадного вокала в Санкт-Петербурге
                                        Artist - Ayreon
                                       *****************
                       Song - The shooting company of Captain Frans B. Cocq
                      ******************************************************
                      Album - Universal Migrator Part 0I-The Dream Sequencer 
                     ********************************************************
                                      Tabbed By - Ayreon77
                                     **********************



Not sure on the chords, anyone think other wise, give me me a PM. 
And i will fix it.


Am     = 002210
Aadd11 = 002200
Dsus2  = 000230


DRUM
INTRO
******

Electric & acoustic Guitars
CHORDS
*******
Am Aadd11 Dsus2 F

-------------------------------------
00:50
Small solo
[---------------------------------------------------------]
[------------------8--------------------------------------]
[--s--9-9-7----7-9---7---------7-7----7-9-7-----------7---]
[-5\7-------10---------10-9-10-----10-------10-7-7-10---7-]
[---------------------------------------------------------]
[---------------------------------------------------------]


[-------------------------------------------------]
[--------------8----------------------------------]
[-9-9-7----7-9---7---------7-7----7-9-7-----------]
[-------10---------10-9-10-----10-------10-7----7-]
[--------------------------------------------10---]
[-------------------------------------------------]

-------------------------------------
VERSE 1
********
                   Am Aadd11 Dsus2 F
I'm standing proud
                    Am Aadd11 Dsus2 F
In this noble crowd 
                      Am Aadd11 Dsus2 F
My banner raised high 

The coat of arms of Amsterdam
                  Am Aadd11 Dsus2 F
To the mystic sky 

A magic light enchants the land
F              E 
We're marching on 
                        F                E
The shooting company of Captain Frans B. Cocq

-------------------------------------
01:52
Repeat
Small solo Above
-------------------------------------
VERSE 2
********
                  Am Aadd11 Dsus2
My uniform shines
                              F
The livery of a high-born man 
                     Am Aadd11 Dsus2
The Claw-guild signs
                             F
Immortalised by the master's hand 
                Am Aadd11 Dsus2
Light and shade 
                                F
With colors rich and brushwork bold 
              Am Aadd11 Dsus2
Night and day 
                               F
With shadows black and armour's gold 
               E
We're marching on 
                        F                E
The shooting company of Captain Frans B. Cocq 

----------------------------
02:46
slide
******
[-----------------|------------------|----------------------------------]
[--s-----s--s--s--|--s-----s--s---s--|--s---------s------s--s------s--s-]
[-3\7---3\7-\9-\5-|-5\9---5\9-\11-\8-|-9\11--12-12\14--14\16\14--11\9-\-]
[-----------------|------------------|----------------------------------]
[-----------------|------------------|----------------------------------]
[-----------------|------------------|----------------------------------]

slow slide 
[up--------------|-------------|------------------|------------------------]
[---s------s-----|--s----------|---s-------s--s---|---s------s------s--s---]
[-2-\-4---3\5--4-|-9\14--14-14-|-14\12---14\16\11-|-16\19--19\18-18-\16\18-]
[----------------|-------------|------------------|------------------------]
[----------------|-------------|------------------|------------------------]
[----------------|-------------|------------------|------------------------]


[---------------------------|----------]
[---s------s------s--s------|---s--s---]
[-14\16--16\17--19\21\16-16-|-17\16\14-]
[---------------------------|----------]
[---------------------------|----------]
[---------------------------|----------]

------------------
03:48
1 Strum Chords
        Am C F Em
        Bm Am

------------------
04:11
Picking Chords
                                          strum   strum
 E                  F          E        Am                Am      E
[-------0-------0-|--------0-|-------0-|---------0------------|------]
[-----0-------3---|------1---|-----0---|-------1---1----------|------]
[---1-------1-----|----2-----|---1-----|-----2-------2--------|------]
[-2-------0-------|----------|---------|---2-----------2------|------]
[-----------------|-3--------|-2-------|-0--------------------|------]
[-----------------|----------|---------|----------------------|------]

                strum strum                  strum  strum
 F                F     E   Bm                 Bm   Aadd11
[---------0----------|-----|---------2-------------|------]
[-------1---1--------|-----|-------3---3-----------|------]
[-----2-------2------|-----|-----4-------4---------|------]
[---3----------------|-----|---4-----------4-------|------]
[-3------------------|-----|-2---------------------|------]
[--------------------|-----|-----------------------|------]

 E                  F          E        
[-------0-------0-|--------0-|-------0-]
[-----0-------3---|------1---|-----0---]
[---1-------1-----|----2-----|---1-----]
[-2-------0-------|----------|---------]
[-----------------|-3--------|-2-------]
[-----------------|----------|---------]

------------------
04:50
heavy guitar
*************
 Am                    F            E           Bm           Am
[---------------------|------------|-----------|------------|---------]
[---------------------|------------|-----------|------------|---------]
[---------------------|------------|-----------|------------|---------]
[---------------------|------------|---------2-|-4------4-4-|---------]
[-7-------------------|-3------3-3-|-2---0-2---|-2---0--2-2-|-7---7-7-]
[-5---5-7-8---8-7-3-7-|-1---0--1-1-|-0---------|------------|-5---5-5-]

 E       F         E
[-------|------------]
[-------|------------]repeat
[-------|------------]heavy
[-------|------------]guitar
[-2---2-|-3--------2-]X2
[-0---0-|-1--1-3-1-0-]


------------------
VERSE 3
********
                   Am Aadd11 Dsus2 F
I'm standing proud 
                    Am Aadd11 Dsus2 F
In this noble crowd 
                  Am Aadd11 Dsus2 F
In our golden age 
                                 Am Aadd11 Dsus2 F
Eternalised by the artist's hand 
                Am Aadd11 Dsus2 F
A glorious page 
                                Am Aadd11 Dsus2 F
In the history of our tiny land 
               E
We're marching on 
                         F                 E
Up to the battlefield to where the spirits walk 
                        F                E
The shooting company of Captain Frans B. Cocq
 
-------------------------------------
06:43
Small Solo - Diff Key
[----------------------15-------------------------------------------------]
[----17-17-15----15-17----15----------15-15----15-17-15-------------15----]
[-14----------17-------------17-16-17-------17----------17-14-14-17----14-]
[-------------------------------------------------------------------------]
[-------------------------------------------------------------------------]
[-------------------------------------------------------------------------]X4



End With Piano

Great track. Enjoy...............
Добавлено: 20.10.2013
Другие материалы по этой песне:

Страница создана 17.05.2012
http://primanota.ru/ayreon/the-shooting-company-of-captain-frans-b-cocq-chords.htm
Привет, Гость.
Предлагаем пройти революционный курс по гитаре.
Подарок от PrimaNota.Ru, забирай!