PrimaNota.ru - самый крупный в мире бесплатный архив песенных текстов, аккордов, табулатур и нот


Ayreon - Play Ground - таба, видео

Регистрация Запомнить меня
Войти через:  Facebook Google Twitter Vk Yandex Mail.ru

Ayreon - Play Ground - таба, видео

Печатать
Просмотров: 131
Artist: Ayreon
Song: Day 9||Playground
Album: The Human Equation

Riff A
E|------------------------------------------------|
B|------------------7---7-------------------7-----|
G|--6-------6-9-6-9---6---9-6-------6-9-6-9---6---|
D|----9-7-9-------------------9-7-9---------------|
A|------------------------------------------------|
E|------------------------------------------------|

Riff B
E|------------------------------------------------|
B|------------------7---7-9---9-10-9-7------------|
G|--6-------6-9-6-9---6-----6----------9-----6----|
D|----9-7-9------------------------------7-9------|
A|------------------------------------------------|
E|------------------------------------------------|

Riff C
E|------------------------------------------------|
B|------------------7---7-9---9-10-9-7------------|
G|--6-------6-9-6-9---6-----6----------9----------|
D|----9-7-9------------------------------7-9------|
A|------------------------------------------------|
E|------------------------------------------------|

Riff D
E|--------------------------------------------------------------------|
B|--------------------11----11----------------------------11----------|
G|--------10-13-10-13----10----13-10----------10-13-10-13----10-10----|
D|--11-13----------------------------13-10-13----------------------13-|
A|--------------------------------------------------------------------|
E|--------------------------------------------------------------------|

Riff E
E|--------------------------------------------------------------|
B|--------------------11----11-13----13-14-13-11----------------|
G|--------10-13-10-13----10-------10-------------13-------10----|
D|--11-13-------------------------------------------11-13-------|
A|--------------------------------------------------------------|
E|--------------------------------------------------------------|

E|---------------------------|
B|---------------------------|
G|---------------------------|
D|--13-11-10-------10--------|
A|-----------11-13-----------|
E|---------------------------|

Order:
Riff A+B during flute and violins
Riff A+C at last part of violins
Riff D during Guitar
Добавлено: 08.11.2013
Другие материалы по этой песне:

Страница создана 22.02.2012
http://primanota.ru/ayreon/play-ground-chords.htm
Привет, Гость.
Предлагаем пройти революционный курс по гитаре.
Подарок от PrimaNota.Ru, забирай!