PrimaNota.ru - самый крупный в мире бесплатный архив песенных текстов, аккордов, табулатур и нот


Ayreon - Natures Dance - текст песни, таба, видео

Регистрация Запомнить меня
Войти через:  Facebook Google Twitter Vk Yandex Mail.ru

Ayreon - Natures Dance - текст песни, таба, видео

Печатать
Просмотров: 145
Tabbed by Mario Carlo Pittalis (mariocarlo2000@hotmail.com)



Intro

E|------------------|------------------|-------------------|------------------|
B|------------------|------------------|-------------------|------------------|
G|-----0-2-(0)--0---|-----0-2-(0)--0---|-----0-2-(0)---0---|-----0-2-(0)--0---|
D|---4------------4-|---4------------4-|---4-------------4-|---4------------4-|
A|-5----------5-----|-5----------5-----|-5-----------5-----|-5-----------5----|
E|------------------|------------------|-------------------|------------------|

E|-----------------|-----------------|-------------------|------------------|
B|-----------------|-----------------|-------------------|------------------|
G|-----------------|-----------------|-----0-2-(0)---0---|-----0-2-(0)--0---|
D|-----0-2-0---0---|-----0-2-0---0---|---4-------------4-|---4------------4-|
A|---4-----------4-|---4-----------4-|-5-----------5-----|-5-----------5----|
E|-5---------5-----|-5---------5-----|-------------------|------------------|

E|-----------------|-----------------|
B|-----------------|-----------------|
G|-----------------|-----------------|
D|-----0-2-0---0---|-----------------|
A|---4-----------4-|-----------------|
E|-5---------5-----|-5---------------|



Part I

E|------------------|------------------|-------------------|------------------|
B|------------------|------------------|-------------------|------------------|
G|-----0-2-(0)--0---|-----0-2-(0)--0---|-----0-2-(0)---0---|-----0-2-(0)--0---|
D|---4------------4-|---4------------4-|---4-------------4-|---4------------4-|
A|-5----------5-----|-5----------5-----|-5-----------5-----|-5-----------5----|
E|------------------|------------------|-------------------|------------------|

E|-----------------|-----------------|-----------------|-----------------|
B|-----------------|-----------------|-----------------|-----------------|
G|-----------------|-----------------|-----------------|-----------------|
D|-----0-2-0---0---|-----0-2-0---0---|-----0-2-0---0---|-----0-2-0---0---|
A|---4-----------4-|---4-----------4-|---4-----------4-|---4-----------4-|
E|-5---------5-----|-5---------5-----|-5---------5-----|-5---------5-----|

E|------------------|------------------|-------------------|------------------|
B|------------------|------------------|-------------------|------------------|
G|-----0-2-(0)--0---|-----0-2-(0)--0---|-----0-2-(0)---0---|-----0-2-(0)--0---|
D|---4------------4-|---4------------4-|---4-------------4-|---4------------4-|
A|-5----------5-----|-5----------5-----|-5-----------5-----|-5-----------5----|
E|------------------|------------------|-------------------|------------------|

E|-----------------|-----------------|
B|-----------------|-----------------|
G|-----------------|-----------------|
D|-----0-2-0---0---|-----0-2-0---0---|
A|---4-----------4-|---4-----------4-|
E|-5---------5-----|-5---------5-----|

E|-----------|-------------|-------------------|------------------|
B|-----------|-------------|-------------------|------------------|
G|-----0-----|-------------|-----0-2-(0)---0---|-----0-2-(0)--0---|
D|---0-----4-|---2-0---0-2-|---4-------------4-|---4------------4-|
A|-------5---|-------4-----|-5-----------5-----|-5-----------5----|
E|-3---------|-5-----------|-------------------|------------------|

E|---------|--------------|-------------------|------------------|
B|---------|--------------|-------------------|------------------|
G|-----0---|--------------|-----0-2-(0)---0---|-----0-2-(0)--0---|
D|---0---0-|------0-2-0---|---4-------------4-|---4------------4-|
A|---------|----4-------4-|-5-----------5-----|-5-----------5----|
E|-3-------|5-------------|-------------------|------------------|

E|-----------------|-----------------|-------------------|------------------|
B|-----------------|-----------------|-------------------|------------------|
G|-----------------|-----------------|-----0-2-(0)---0---|-----0-2-(0)--0---|
D|-----0-2-0---0---|-----0-2-0---0---|---4-------------4-|---4------------4-|
A|---4-----------4-|---4-----------4-|-5-----------5-----|-5-----------5----|
E|-5---------5-----|-5---------5-----|-------------------|------------------|

E|-----------------|-----------------|
B|-----------------|-----------------|
G|-----------------|-----------------|
D|-----0-2-0---0---|-----------------|
A|---4-----------4-|-----------------|
E|-5---------5-----|-5---------------|



Part II

E|------------------|------------------|-------------------|------------------|
B|------------------|------------------|-------------------|------------------|
G|-----0-2-(0)--0---|-----0-2-(0)--0---|-----0-2-(0)---0---|-----0-2-(0)--0---|
D|---4------------4-|---4------------4-|---4-------------4-|---4------------4-|
A|-5----------5-----|-5----------5-----|-5-----------5-----|-5-----------5----|
E|------------------|------------------|-------------------|------------------|

E|-----------------|-----------------|-----------------|-----------------|
B|-----------------|-----------------|-----------------|-----------------|
G|-----------------|-----------------|-----------------|-----------------|
D|-----0-2-0---0---|-----0-2-0---0---|-----0-2-0---0---|-----0-2-0---0---|
A|---4-----------4-|---4-----------4-|---4-----------4-|---4-----------4-|
E|-5---------5-----|-5---------5-----|-5---------5-----|-5---------5-----|

E|------------------|------------------|-------------------|------------------|
B|------------------|------------------|-------------------|------------------|
G|-----0-2-(0)--0---|-----0-2-(0)--0---|-----0-2-(0)---0---|-----0-2-(0)--0---|
D|---4------------4-|---4------------4-|---4-------------4-|---4------------4-|
A|-5----------5-----|-5----------5-----|-5-----------5-----|-5-----------5----|
E|------------------|------------------|-------------------|------------------|

E|-----------------|-----------------|
B|-----------------|-----------------|
G|-----------------|-----------------|
D|-----0-2-0---0---|-----0-2-0---0---|
A|---4-----------4-|---4-----------4-|
E|-5---------5-----|-5---------5-----|

E|-----------|-------------|-------------------|------------------|
B|-----------|-----3---2---|-------------------|------------------|
G|-----0-----|-----------2-|-----0-2-(0)---0---|-----0-2-(0)--0---|
D|---0-----4-|---2---2-----|---4-------------4-|---4------------4-|
A|-------5---|-0-----------|-5-----------5-----|-5-----------5----|
E|-3---------|-------------|-------------------|------------------|

E|---------|-------------|
B|---------|-------------|
G|-----0---|-------------|
D|---0---0-|---2-0---0-2-|
A|---------|-------4-----|
E|-3-------|-5-----------|

E|-----------------|------------------|-----------------|---------3-------|
B|-------3---------|-------3----------|-------3---------|-------2---------|
G|-----3---3-------|-----5---5--------|-----2---2---2---|-----2-----------|
D|---0-------0---0-|---5-------5---5--|---2-------2---2-|---2-------------|
A|-1-----------1---|-3-----------3----|-0---------------|-0---------------|
E|-----------------|------------------|-----------------|-----------------|
Добавлено: 20.07.2012
Другие материалы по этой песне:
  • Аккорды и текст

Страница создана 05.03.2012
http://primanota.ru/ayreon/natures-dance-chords.htm
Привет, Гость.
Предлагаем пройти революционный курс по гитаре.
Подарок от PrimaNota.Ru, забирай!