PrimaNota.ru - самый крупный в мире бесплатный архив песенных текстов, аккордов, табулатур и нот


Ayreon - Loser - текст песни, таба, видео

Регистрация Запомнить меня
Войти через:  Facebook Google Twitter Vk Yandex Mail.ru

Ayreon - Loser - текст песни, таба, видео

Печатать
Просмотров: 211
        E   S  E   S  E   S  S  S  S  E   S  S
E||-------14-14--14-14--14-14-15-14-10--12-14-|
B||---12--------------------------------------|
G||*------------------------------------------|
D||*------------------------------------------|
A||-------------------------------------------|
E||-------------------------------------------|


  S  S  Q.      S  S  S  E   S  E      S  E   S S  S S  E   S  E   S  E   S
--L-15-14------14-15-14-10--12-14--|--12-10-----9-10-9----------------------|
-----------------------------------|---------12--------10-----12------------|
-----------------------------------|-----------------------11-----11-12--11-|
-----------------------------------|----------------------------------------|
-----------------------------------|----------------------------------------|
-----------------------------------|----------------------------------------|


Duration Legend
---------------
W - whole
H - half
Q - quarter
E - 8th
S - 16th
T - 32nd
X - 64th
. - note dotted
|-n-|  - n-tuplets


Tablature Legend
----------------
L - tied note
x - dead note
g - grace note
(n) - ghost note
> - accentuded note
NH - natural harmonic
AH - artificial harmonic
TH - tapped harmonic
SH - semi harmonic
PH - pitch harmonic
h - hammer on
p - pull off
b - bend
br - bendRelease
pb - preBend
pbr - preBendRelease
brb - bendReleaseBend
\n/ - tremolo bar dip
\n - tremolo bar dive
-/n - tremolo bar Release up
/n\ - tremolo bar inverted dip
/n - tremolo bar return
-\n - tremolo bar Release down
S - shift slide
s - legato slide
/ -  slide into from below or out of upwards
\ -  slide into from above or out of downwards
~ - vibrato
W - wide vibrato
tr - trill
TP - tremolo picking
T - tapping
S - slap
P - pop
< - fade in
^ - brush up
v - brush down
Добавлено: 29.07.2012
Другие материалы по этой песне:

Страница создана 30.03.2012
http://primanota.ru/ayreon/loser-chords.htm
Привет, Гость.
Предлагаем пройти революционный курс по гитаре.
Подарок от PrimaNota.Ru, забирай!