PrimaNota.ru - самый крупный в мире бесплатный архив песенных текстов, аккордов, табулатур и нот


Ayreon - Epilogue The Memory Remains - таба, видео

Регистрация Запомнить меня
Войти через:  Facebook Google Twitter Vk Yandex Mail.ru

Ayreon - Epilogue The Memory Remains - таба, видео

Печатать
Просмотров: 146
Ayreon - Epilogue: The Memory Remains (solos)
From the 2008 compilation album "Timeline"

Words and music by Arjen Lucassen

Transcription by Travis Lausch


Notes: I figured out the solos by watching the playthroughs 
on the DVD portion of the "Timeline" box set. Both solos are 
in standard tuning. The Lori Linstruth solo is incomplete, 
even despite the video, because her fingers are just all 
over the place on that one arpeggio, which starts with a 
long slide down the neck (see her solo in Stream Of Passion's 
"Passion" for another great example of this). Despite this,
I've presented the solos exactly as they're played on the DVD. 
They may not be played this way in the final recordings, 
but this is how Arjen and Lori played them there.

Lori's solo has a lot more whammy bar usage than I've written down.
Make it a sort of habit to pre-dive into just about every note after
any sort of pause here. And use the wah to the fullest extent you can here.

Arjen's solo is played with a lot of finger vibrato with the slide. 
As a result, some notes are, for all practical purposes, "between" 
frets, so the intended pitches may be a bit different from 
what I've written down.


Solo 1 (Lori)

w/heavy wah

|--------------------------------------|
|--------------------------------------|
|--v1/4/7--7b8~~~---5/8/11--11b12~~~~--|
|--------------------------------------|
|--------------------------------------|
|--------------------------------------|

|--------------------------------------|
|--------------------------------------|
|--8-10b11~~~~~~----8b10~~~--8-6-5-6~~-|
|--------------------------------------|
|--------------------------------------|
|--------------------------------------|

|----------------------------------7-10--v11---|
|--------------------------------9-------------|
|----------------------------7h8---------------|
|--10---\6~~~~---3--3h4~~~~--------------------|
|----------------------------------------------|
|----------------------------------------------|

                                      +12
                                      ____
|--7---------------------------------/-----|
|----9---9b12~~~--9-8~~~~~~~~--7h8p7/~~~~~-|
|------8-----------------------------------|
|------------------------------------------|
|------------------------------------------|
|------------------------------------------|

|-----------------------......
|-----------------------......
|-----------------------......
|--8~~~~--4h8-8/10~~~---......
|-----------------------......
|-----------------------...... Even with the video, I have a hard time making this arpeggio out,.


                                       +12
                                       ______
|-------------------------------------/--------|
|-------------------------7-9-9b11~~~/~~~~~~~--|
|-------4h6b8~~~~---6/8~~----------------------|
|--/4h6----------------------------------------|
|----------------------------------------------|
|----------------------------------------------|



Solo 2 (Arjen - slide)

|----------------------------------------------------------------------------------------|
|--4////12~~~---14/16\11~~~---11///13-13~~~///20---\16\\15~~~~--15\\\11---13---/14\\\13--|
|----------------------------------------------------------------------------------------|
|----------------------------------------------------------------------------------------|
|----------------------------------------------------------------------------------------|
|----------------------------------------------------------------------------------------|

|----------------------------------------------/19-19--18\\---------------20---\19---------|
|--/14\\11--13--14---16--18\\\11---9--9///16----------------15---////17------------19~~~~--|
|------------------------------------------------------------------------------------------|
|------------------------------------------------------------------------------------------|
|------------------------------------------------------------------------------------------|
|------------------------------------------------------------------------------------------|

|----------/23--22\\\18~~~~-19~~~~~~~19\\18------18///19\\\16\\\\\\\\--------------------|
|--19~~~~--------------------------------------------------------------------------------|
|----------------------------------------------------------------------------------------|
|----------------------------------------------------------------------------------------|
|----------------------------------------------------------------------------------------|
|----------------------------------------------------------------------------------------|

Tab key:

v = vibrato bar dive, usually a pre-dive before the note, releasing into the note.
~ = finger vibrato/bar vibrato
/ = slide
//// = lengthy (over the course of more than an eighth note) slide
b = bend
h = hammer on
p = pull off

  +12
  _______
 /         = Digitech Whammy Pedal notation. Depress rocker to the specified 
number of semitones (+12 = one octave)
/         
Добавлено: 06.06.2013
Другие материалы по этой песне:
  • Аккорды и текст

Страница создана 06.06.2013
http://primanota.ru/ayreon/epilogue-the-memory-remains-chords.htm
Привет, Гость.
Предлагаем пройти революционный курс по гитаре.
Подарок от PrimaNota.Ru, забирай!