PrimaNota.ru - самый крупный в мире бесплатный архив песенных текстов, аккордов, табулатур и нот


Ayreon - Castle Hall - текст песни, таба, видео

Регистрация Запомнить меня
Войти через:  Facebook Google Twitter Vk Yandex Mail.ru

Ayreon - Castle Hall - текст песни, таба, видео

Печатать
Просмотров: 202
Авторы текста: Peter Daltrey
At last! you enter the Electric Castle!
Here in this vast hall where even shadows fear the Light.
Here you must confront your past.
If you have killed, beware of the Gathering of Spirits For they do fish for men.
Here, the disembodied Astral World becomes flesh once more.
I pitty the Men of swords, For here blood runs cold...

Intro:

Am, C, D, F
Am, C, F, Em
X2
(Acoustic 1st 2nd and 3rd strings only)

A5, C5, D5, F5, A5, C5, F5, E5

[barbarian]
Cries from the grave resound in my ears
They hail from beyond my darkest fears
Faces of the past are etched in my brain
The women I raped, the men I've slain

Shades of the dead are sliding on the wall
Demons dance in the castle hall

A5, C5, D5, F5, A5, C5, F5, E5

[knight]
I call upon the sword, the mighty Excalibur
Grant me the skill to fulfill my quest

I call upon my king and the knights of the table round
Grant me the courage to stand to this test

I call upon the seer, Merlin the sorcerer
Grant me the magic to end my pain

I call upon the spirit that lives in a noble heart
Grant me the passion that's within my veins

Shades of the dead are sliding on the wall
Demons dance in the castle hall

A5, C5, D5, F5, A5, C5, F5, E5


Solo 1st part (you can add 12 to all of the below if your guitar allows it)

e-------------------------------7-10----------------------|
B-----7-----8-10-7---------8-10------10-7-8-7h8h7---8-7---|
G---9---7----------7-9---9------------------------9-----8-|
D---------9-----------------------------------------------|
A---------------------------------------------------------|
E---------------------------------------------------------|

Flute, then guitar.

Solo 2nd Part

e---
B---
G---
D---
A---
E---

Am, C, D, F
Am, C, F, Em
X2
(Acoustic 1st 2nd and 3rd strings only)

A5, C5, D5, F5, A5, C5, F5, E5

[barbarian]					[knight]
Cries from the grave resound in my ears
They hail from beyond my darkest fears
Faces of the past are etched in my brain        I call upon the seer, Merlin the sorcerer
						Grant me the magic to end my pain
The women I raped, the men I've slain		I call upon the spirit that lives in a noble heart
						Grant me the passion that's within my veins

Shades of the dead are sliding on the wall	Shades of the dead are sliding on the wall
Demons dance in the castle hall			Demons dance in the castle hall


A5, C5, D5, F5, A5, C5, F5, E5

Solo 1st part

e-------------------------------7-10----------------------|
B-----7-----8-10-7---------8-10------10-7-8-7h8h7---8-7---|
G---9---7----------7-9---9------------------------9-----8-|
D---------9-----------------------------------------------|
A---------------------------------------------------------|
E---------------------------------------------------------|

e-----------------------------2-5---------------------|
B-----2-----3-5-2---------3-5-----5-2-3-2h3h2---3-2---|
G---4---2---------2-4---4---------------------4-----3-|
D---------4-------------------------------------------|
A-----------------------------------------------------|
E-----------------------------------------------------|

Solo 3rd part

e---
B---
G---
D---
A---
E---

anyway 2nd and 3rd are too much for my hearing..
complete it if u can please :P

- Ranash
Добавлено: 21.07.2012
Другие материалы по этой песне:

Страница создана 31.03.2012
http://primanota.ru/ayreon/castle-hall-chords.htm
Привет, Гость.
Предлагаем пройти революционный курс по гитаре.
Подарок от PrimaNota.Ru, забирай!