PrimaNota.ru - самый крупный в мире бесплатный архив песенных текстов, аккордов, табулатур и нот


Ayreon - Another Time Another Place - таба, видео

Регистрация Запомнить меня
Войти через:  Facebook Google Twitter Vk Yandex Mail.ru

Ayreon - Another Time Another Place - таба, видео

Печатать
Просмотров: 110
                                          Artist - Ayreon
                                         *****************
                                  Song - Another Time, Another Place
                                 ************************************
                                   Album - Into The Electric Castle  
                                  **********************************
                                        Tabbed By - Ayreon77
                                       **********************



Most of the acoustic chords are barred,


 Not sure if this is keyboard or guitar, i,m thinking guitar.
                              00:07
                              Acoustic Strumming G E X4
[----------------------------------------------------------]
[-11-12--11-12--11-12--11-12--11-12--11-12--11-9--11-9-8-9-]
[----------------------------------------------------------]
[----------------------------------------------------------]
[----------------------------------------------------------]
[----------------------------------------------------------]


[------------------------------|-9-10--9-10--9-7-9-7-6-7--9-10--9-10-9-10-7-]
[-11-12--11-12-11-12-9-12-11-9-|--------------------------------------------]
[------------------------------|--------------------------------------------]
[------------------------------|--------------------------------------------]
[------------------------------|--------------------------------------------]
[------------------------------|--------------------------------------------]

00:07
Acoustic Strumming
*******************
G E X4

-------------------------------------------------
[Hippie]
 ------
           E            G#m
Was this a dream I just had
  C#m
I have my doubts
  G                  F#m
I can't make out the truth
         F         E
From the lies here inside
             (Electric Picking From Here)
             E                G#m
What kind of trip have I been on
      C#m
Where did I go
    G                 F#m
I'd like to know just why
       F            E
Did it feel so damn real

Electric Picking 
 E         G#m       C#m       G         F#m       F
[---------|---------|-------4-|-3-0-----|-----2---|-----0---]
[-----0---|-----4---|-----5---|---------|-------2-|-------0-]
[---1---1-|-------4-|---6-----|-----4---|---2-----|---2-----]
[-2-------|---6-----|-6-------|-------5-|-4-------|-3-------]
[---------|-6-------|---------|---------|---------|---------]
[---------|---------|---------|---------|---------|---------]

 E
[---------0-------]
[-0-----0---0-----]
[-1-1-2-------2-1-]
[-2---------------]
[-2---------------]
[-----------------]

-------------------------------------------------
Same As Above, Start Were The Acoustic Comes In.
G E X4

-------------------------------------------------
[Futureman]
 ---------
                  E             G#m
There's something strange going on
  C#m
I don't know why
     G                 F#m
It's something I can't place
        F                 E
An open space, a shrouded face
         (Electric Picking From Here) same as above
         E      G#m
As if my memory files
     C#m
Have been erased
    G                F#m
And then replaced by lies
      F                E
False replies, clouded skies

-------------------------------------------------
Heavier part
*************
E

CHORUS
*********
[Hippie & Futureman]
 ------------------
G          B              E
  A secret yearning lurks inside
       G#m             A
Like a dream trying to hide
        B             E
Another time, another space
G          B                 E
  An empty feeling haunts my brain
          G#m          A
A strange void I can't explain
        B             C#m
Another time, another space

-------------------------------------------------
Tried to line this up with each other but its kinda there.
02:03
 Heavier Guitar 
  E              G    B    E         G#m   A      B       E
[------------------------------0---------------------------------0---------]
[----------------------------0---0----------------------------h----p-------]
[---------------------4-------------------------------8----1-1-2--2-1---1--]
[-----and so on--5----4----2---------5-5---7------------9--2----------2---2]
[-2-2-2-2-2-2-2--5----2----2---------5-5---7--------9------2---------------]
[-0-0-0-0-0-0-0--3---------0---------3-3---5------7--------0---------------]
|                                                                          |
|Picking Guitar  G    B    E         G#m   A       B       E               |
[----------------------------0----------------------------------h---7--p---]
[----------------3-----4-------0-------4-------5-------7-------9-10--10-9--]
[--------------4-----4-----1------s--4---4---6---6---8---8----------------9]
[------------5-----4-----2-------4\6-------7-------9---------9-------------]
[----------------------------------------------------------7---------------]
[--------------------------------------------------------------------------]


 Heavier Guitar
  G   B   E         G#m    A    B           C#m
[--------------------------------------------------------------s--]
[-------------------------------------------------------------7\6-]
[-----4--------s-9----------------------------h-p--------h--6-----]
[-5---4----2--7\9-9--5-5---7----h--7-4--s--4-4-6-4------6-8-------]
[-5---2----2---------5-5---7---7-9-----4\6---------6-4------------]
[-3--------0---------3-3---5--------------------------------------]
|                                                                 |
|Picking Guitar                                                   |
| G      B     E       G#m      A       B         C#m             |
[-----------------0-----------------------------------h-----------]
[-----3-----4-------0-------4-------5-------7------6-6-7----------]
[---4-----4-----1------s--4---4---6---6---8----8-6-------6--------]
[-5-----4-----2-------4\6-------7-------9----------------6--------]
[--------------------------------------------------------4--------]
[-----------------------------------------------------------------]


-------------------------------------------------
[Roman]
 -----
          E                  G#m
I've been relieved of all my pain
     A
I've been reborn
  C                F#m
A mighty storm has raged
       F        E
And my fears disappeared

-------------------------------------------------
[Knight]
 ------
               E          G$m
I've found the grail here within
     A
In a magic dream
C             F#m
I have seen a world
        F              E
Of make belief, of joy and grief


-------------------------------------------------
Heavier part
*************
Same As Above Then This Small solo Below 

CHORUS
*********
03:14
 Has Wha Wha on the Solo
 Hold The Bend When Hitting it  
  b                        r         Whammy Shake s  03:21
[17-17-17-17-17-17-17-17-17-16-17-16--16-/\-/\-/\-\-|----------------------]
[---------------------------------------------------|----------------------]
[---------------------------------------------------|----12----12-12-------]
[---------------------------------------------------|-14----14-------14---s]
[---------------------------------------------------|-------------------13\]
[---------------------------------------------------|----------------------]

03:32
SOLO
*****           h         h    b   brp        br     br
[-----s---7---11-12-9---12-14-14--14--12-14--14-13--13-12-----------]
[----7\9--------------------------------------------------Big pleck-]
[-9---------------------------------------------------------scratch-]
[------------------------------------------------------------X------]
[-----------------------------------------------------------X-------]
[----------------------------------------------------------X--------]

03:46
Heavy Guitar
  G F#m E      G F#m E      G F#m E      G F#m E E E
[----------------------------------------------------]
[----------------------------------------------------]Let
[----------------------------------------------------]Chord
[-5--4--2------5--4--2------5--4--2------5--4--2-2-2-]Ring
[-5--4--2------5--4--2------5--4--2------5--4--2-2-2-]Out
[-3--2--0--0-2-3--2--0--0-2-3--2--0--0-2-3--2--0-0-0-]


-------------------------------------------------

The Weird Backward piece


Remember Forever.....



Great Tune. Enjoy.........
Добавлено: 23.02.2014
Другие материалы по этой песне:
  • Аккорды и текст

Страница создана 23.02.2014
http://primanota.ru/ayreon/another-time-another-place-chords.htm
Привет, Гость.
Предлагаем пройти революционный курс по гитаре.
Подарок от PrimaNota.Ru, забирай!