PrimaNota.ru - самый крупный в мире бесплатный архив песенных текстов, аккордов, табулатур и нот


Ayreon - Accident - таба, видео

Регистрация Запомнить меня
Войти через:  Facebook Google Twitter Vk Yandex Mail.ru

Ayreon - Accident - таба, видео

Печатать
Просмотров: 80
Уроки эстрадного вокала в Санкт-Петербурге
-------------------------------------------------------------------------------
                             Ayreon - Day Seventeen: Accident?
-------------------------------------------------------------------------------
Tabbed by: Roie Meltzer
E-mail: roiemeltzer@gmail.com

Tuning: e-B-G-D-A-E (standard)

my cover (a lot of ppl asked for the tabs) https://www.youtube.com/watch?v=AQzvfPnDN7k

Guitar solo
                                                            T
e|-------------------------V------------14b(16)r14p12h14----19--14p12------------|
B|---------------12/14-15-/17---12~------------------------------------12--15----|
G|--14b(16)~--11-----------------------------------------------------------------|
D|-------------------------------------------------------------------------------|
A|-------------------------------------------------------------------------------|
E|-------------------------------------------------------------------------------|

e|-----------------------------------------------------------------------P.H-----|
B|--12b(13)r12----12-----V-----------------------------------------------(12)----|
G|-------------14----12--12\11---------------------------V------V----------------|
D|------------------------------14-----12--14p12\10-----10p12---9----------------|
A|-------------------------------------------------------------------------------|
E|-------------------------------------------------------------------------------|

e|---19--21-22---21h22--19----19-------------------------------------------------|
B|--------------------------------22-20------------------------------------------|
G|----------------------------------------21-21-19-21b(23)~----------------------|
D|-------------------------------------------------------------------------------|
A|-------------------------------------------------------------------------------|
E|-------------------------------------------------------------------------------|

e|-------------------------------------------------------------------------------------------|
B|--------17-19-20--19-17----------------17--------------------------------------------------|
G|--17-19-----------------19-17-16-17-19----19-17-16-----17-16-------------------------------|
D|---------------------------------------------------19--------19-17-16-17-19-17-16----------|
A|----------------------------------------------------------------------------------19-17~---|
E|-------------------------------------------------------------------------------------------|

Synth solo (tabbed for guitar) *as i play in my cover

e|-----------------------14---------------12-14-15--14h15p14p12------22-21--19~---|
B|--13b(15)--14h15p14p12----12~-----14-15-----------------------------------------|
G|--------------------------------------------------------------------------------|
D|--------------------------------------------------------------------------------|
A|--------------------------------------------------------------------------------|
E|--------------------------------------------------------------------------------|

e|---21h22p21p19-24b-19~---17-15-14---15-14h15p14----------14-15-14~--------------|
B|------------------------------------------------17-15-17------------------------|
G|--------------------------------------------------------------------------------|
D|--------------------------------------------------------------------------------|
A|--------------------------------------------------------------------------------|
E|--------------------------------------------------------------------------------|

e|---15p14h15p14---19--15p14h15p14--21----15p14h15p14-21b(23)-19-17---------------|
B|---------------------------------------------------------------------------|
G|---------------------------------------------------------------------------|
D|---------------------------------------------------------------------------|
A|---------------------------------------------------------------------------|
E|---------------------------------------------------------------------------|

e|--19-21-22--21h22p21p19----17-15-14~-------12-14-15-14-12------------------|
B|----------------------------------------------------------15-14------------|
G|---------------------------------------------------------------------------|
D|---------------------------------------------------------------------------|
A|---------------------------------------------------------------------------|
E|---------------------------------------------------------------------------|

e|-----------12--------------12----------------------------------------------|
B|--12-14-15----15-14-13--15----15----13----10--9~---------------------------|
G|---------------------------------------------------------------------------|
D|---------------------------------------------------------------------------|
A|---------------------------------------------------------------------------|
E|---------------------------------------------------------------------------|

************************************

| /   slide up
| \   slide down
| h   hammer-on
| p   pull-off
| ~   vibrato
| +   harmonic
| x   Mute note
| b   Bend
| pb  Pre-bend
| br  Bend release
| pbr Pre-bend release
| brb Bend release bend
| V   Whammy dive (small)

************************************
Добавлено: 19.06.2016
Другие материалы по этой песне:

Страница создана 10.07.2012
http://primanota.ru/ayreon/accident-chords.htm
Привет, Гость.
Предлагаем пройти революционный курс по гитаре.
Подарок от PrimaNota.Ru, забирай!