PrimaNota.ru - самый крупный в мире бесплатный архив песенных текстов, аккордов, табулатур и нот


Aynsley Lister - Coming Home 2 U - таба, видео

Регистрация Запомнить меня
Войти через:  Facebook Google Twitter Vk Yandex Mail.ru

Aynsley Lister - Coming Home 2 U - таба, видео

Печатать
Просмотров: 127
Coming home 2 u	
						
Tabbed by peatemark@hotmail.com- send me ya feedback if ya want
This is my attempt at this awesome Aynsley song  - it aint perfect- but hey...

Buy Aynsley's albums - he rocks!  www.aynsleylister.co.uk


Tune down ½ step
(b) bend  - number indicates  bend strength ( ie b2 = full step bend), (b1 = half step bend)
(br) bend & release
(pb) pre-bend and release
" = repeat previous bar

Riff 1 (Intro)
|------------------------|------------------||------------------------||
|----/8----10----8-------|--/1111-101010----||------------------------||
|----/89---10----89---9--|--/1212—101010----||---Repeat---------------||
|--------10---10---10-10-|10-------------10-||------------------------||
|-/x\--------------------|------------------||------------------------||
|------------------------|------------------||------------------------||
							   (End 1)
|------------------------|------------------|--------------------------|
|---/11---10----8--------|--/1111-101010----|-131313--|||-|||-|||-|-\--|
|---/12---10----89---9---|--/1212—101010----|-121212--|||-|||-|||-|-\--|
|-------10---10---10-10--|10-------------10-|-101010—-|||-|||-|||-|-\--|
|------------------------|------------------|--------------------------|
|------------------------|------------------|--------------------------|

Verse1 (w/riff 1)
I open my eyes 	to a brand new day
But I don't feel too good   so don't get in my way

(Riff 2)
            A	     Bb	   	C	   (Fill 1)
|-----------------|-----------|-----------||---------------------------|
|-----------------|-----------|-----------||---------------------------|
|---------22---22-|--33----33-|---55---55-||-----5---5--5----5---------|
|---------22—--22-|--33----33-|---55---55-||-----5---57-57---5---------|
|---------00—--00-|--11----11-|---33---33-||--/7---------------7\----0-|
|-----------------|-----------|-----------||---------------------------|
I been here too long       its time to go home
								(End 2)
|-------------------------|-------------------|----------------------|
|-------------------------|-------------------|-666—666-666-666------|
|--------------22------22-|--33----33---------|-555-555-555-555------|
|--------------22—-----22-|--33----33---------|-333-333-333-333------|
|--(0)---------00—-----00-|--11----11---------|----------------------|
|-------------------------|-------------------|----------------------|
I know you'll make me feel better don't like to be on my own

Chorus (Riff 3)
|-----------------------------|----------------|------------------|| 
|-----------------------------|-10----8--------|--/1111-101010----||
|-----------------------------|-10----89----9--|--/1212—101010----|(w/End1)
|-8(b)-8(b)-8(b)-8(b)--8/10~~~|----10---10--10-|10-------------10-||
|----10---10---10-------------|----------------|------------------||
|-----------------------------|----------------|------------------||
That's why I'm coming home to you

Verse 2 (w/riff 1 x 4)
When I first met you baby I never thought it could be
So hard to leave you baby  So hard for me yes it is

         		A		Bb	   	 C
|-----------------|-------------|-----------|-----------------------------|
|-----------------|-------------|-----------|-----------------------------|
|---------22---22-|--33----33---|---55---55-|-/X-5-5/3--------5-----------|
|---------22—--22-|--33----33---|---55---55-|-/X-5-5/3--------5-----------|
|---------00—--00-|--11----11---|---33---33-|----------5—--5/7---7/5/3--0-|
|-----------------|-------------|-----------|-----------------------------|
Well I've had my fun 	now I'm counting the days 

|-------------------------|-------------------|--------------------------|
|-------------------------|-------------------|---666-—666--666--666-----|
|--------------22------22-|--33----33---------|---555—-555--555--555-----|
|--------------22—-----22-|--33----33---------|---333—-333--333--333-----|
|--------------00—-----00-|--11----11---------|--------------------------|
|-------------------------|-------------------|--------------------------|
I know that you'll    be waiting       to take me out of the rain

Chorus (w/riff3)
That's why I'm coming home to you   		(w/riff 1 x 4) ( w/end 1)
I'm coming home to you oh yeah   

Solo -1.42
|--------------------------------|---------------------------------------|
|-131313-131313-131313-131313\11-|-11-----11-----------------------------|
|-121212-121212-121212-121212\10-|-10(b2)—10(b2)-8~~------10(pb)-8~~-----|
|--------------------------------|------------------10810------------1010|
|--------------------------------|---------------------------------------|
|--------------------------------|---------------------------------------|

|----------11--------------------|--88--------8----88-------------------|
|-11(b2)---------11(pb)~~~~~-----|--88-------8-----88-8—11(b2)~~~~~-----|
|--------------------------------|-----10(b2)---10----------------------|
|--------------------------------|--------------------------------------|
|--------------------------------|--------------------------------------|
|--------------------------------|--------------------------------------|	
|-8--------------------------------|-------------------------------------|
|-8-11-8----11-----11--------------|---11-/111111-/111111-/111111-/111111|
|-------10-8--10-8----12/10-8------|/12---/121212-/121212-/121212-/121212|
|-----------------------------10~~~|-------------------------------------|
|----------------------------------|-------------------------------------|
|----------------------------------|-------------------------------------|	
|--------------|-----------------------------|---88----------------------|
|--------------|------11-13------------------|---88-11-8----8------------|
|----"---------|-11/12------12/10—8~~--------|-89--------10--10-8--8—-8--|
|----"---------|-----------------------10810-|----------------------10---|
|--------------|-----------------------------|---------------------------|
|--------------|-----------------------------|---------------------------|

|-----------------------------|------|-/121212-/121212-121212-121212---|
|-/111111-111111-111111-111111|--"---|-/111111-/111111-111111-111111---|
|-/121212-121212-121212-121212|--"---|-/121212-/121212-121212-121212---|
|-----------------------------|------|---------------------------------|
|-----------------------------|------|---------------------------------|
|-----------------------------|------|---------------------------------|

	
|--------------|---------------|-----------|------------------------|
|--11/13~~~----|-(13)----------|11~~~~~----|-11---------------------|
|--------------|---------------|-----------|---10/8-8---------------|
|--------------|---------------|-----------|---------10~~--8~~~-----|
|--------------|---------------|-----------|------------------------|
|--------------|---------------|-----------|------------------------|

Bridge 
|----------------------------|-------------------------------|	
|----------------------------|-------------------------------|	
|--------10(b2)-10(b2)~~~~~~~|------------5------------------|	
|----------------------------|-------------------------------|	
|----------------------------|-3~~~~--5/7---7-----1~~~-------|	
|----------------------------|-------------------------1~~~--|	
Here I go again	I've gotta go away 

|-------------------------------------------|--------------------------|
|-------------------------------------------|--------------------------|
|------------------------5------------------|---------5--5-------------|
|-------------------------------------------|---------57-5-------------|
|-------------3~~~~--5/7---7-----1~~~-------|-3~~------------7\3---0---|
|-------------------------------------1~~~--|--------------------------|
& I promise you baby   That never will I      stray no I wont

  	 A	Bb	    C
|-----------|-----------|-------------|------------------------------|	
|-----------|-----------|-------------|--------------88~~~\----------|	
|--22----22-|--33----33-|-----55---55-|---5—--5----------------------|	
|--22—---22-|--33----33-|-----55---55-|---57--5--7/8-----------------|	
|--00—---00-|--11----11-|-----33---33-|-----------—------------------|	
|-----------|-----------|-------------|------------------------------|	
They can try to lead me on but with you is where I really belong

|-----------------|-------------------|--------------------------|
|-----------------|-------------------|--666-—666--666--666------|
|------22------22-|--33----33---------|--555--555--555--555------|
|------22—-----22-|--33----33---------|--333--333--333--333------|
|------00—-----00-|--11----11---------|--------------------------|
|-----------------|-------------------|--------------------------|
     Don't u worry about a thing    oh yeah 


Chorus (w/riff 3)
That's why I'm coming home to you  
I'm coming home to you



  Solo 2    3.14 
|--17(b2)~~~~17-15/11------------|-1515---1515---------------------------|
|--------------------13~~~~-11-13|-1515---1515—13-13~~\------11—11(b1)---|
|--------------------------------|------------------------/12--12--------|
|--------------------------------|---------------------------------------|
|--------------------------------|---------------------------------------|
|--------------------------------|---------------------------------------|

|-----------------------------------|-----------8---------8--------------|
|-11(br)-11(br)-(11br)-11(br)-11(br)|-11(b2)~~~~8-11-8-----11-8----------|
|-----------------------------------|-----------------10-8-----10-8------|
|-----------------------------------|-------------------------------1010~|
|-----------------------------------|------------------------------------|
|-----------------------------------|------------------------------------|

|-------------------------------------|----------------------------------|
|-------------------------------------|----------------------------------|
|-----8-------------------------------|-------------101010-101010--------|
|--/10-10—-101010-101010-101010-101010|--888-888-----8-8-8—-8-8-8--------|
|----------101010-101010-101010-101010|--888-888-------------------------|
|-------------------------------------|----------------------------------|

|---------11--------------------|----------------|------------------------|
|---------11------11------------|----------------|-/111111-|||-|||-|||----|
|----10(b2)-------10-----8------|----10(br)8-----|-/121212-|||-|||-|||----|
|--------------------------10~~~|-10--------10~~~|------------------------|
|-------------------------------|----------------|------------------------|
|-------------------------------|----------------|------------------------|

|-----------|----------|--------|-/88-------/88-------/88-----------------|
|-----------|----------|--------|-/88-------/88-------/88-----------------|
|---"-------|----"-----|---"----|-----10-8------10-8--------10-8----------|
|---"-------|----"-----|---"----|--------------------------------1010~~---|
|-----------|----------|--------|-----------------------------------------|
|-----------|----------|--------|-----------------------------------------|

|-/88------/88------/88---------------|
|-/88------/88------/88---------------|
|-----10-8-----10-8-----10(br)8-10(b2)|
|-------------------------------------|
|-------------------------------------|
|-------------------------------------|

|----------------------------------------|-/88------/88------------------|
|-/1111------/1111------/1111------------|--88------/88------------------|
|--1212-10-8--1212-10-8--1212-10-8-------|-----10-8-----10-\-------------|
|----------------------------------1010--|-------------------------------|
|----------------------------------------|-------------------------------|
|----------------------------------------|-------------------------------|

End
|-------------------|--------------------|--------------8--------8—11(b2)|
|-------------------|--------------------|-------------8--11-8-11--------|
|-3--3--3-----------|-5------------------|---------8-9-------------------|
|-3--3--3---3—-3--3-|-5---------5-7-7/8~~|7-5--/10-----------------------|
|-1—-1--1---3—-3--3-|-3--3~~-5/7---------|-------------------------------|
|-----------1—-1--1-|--------------------|-------------------------------|

|-11-8-----------------------------------|-------------------------|
|-----11-8------11-8---------------------|-------------------------|
|----------10-8------10-8----------------|--5----------------------|
|-------------------------10-8-----------|--5----------------------|
|------------------------------10-8(b1)--|--3----------------------|
|----------------------------------------|-------------------------|
Добавлено: 22.05.2012
Другие материалы по этой песне:
  • Аккорды и текст

Страница создана 22.05.2012
http://primanota.ru/aynsley-lister/coming-home-2-u-chords.htm
Привет, Гость.
Предлагаем пройти революционный курс по гитаре.
Подарок от PrimaNota.Ru, забирай!