PrimaNota.ru - самый крупный в мире бесплатный архив песенных текстов, аккордов, табулатур и нот


Ayabie - Nankyoku - таба, видео

Регистрация Запомнить меня
Войти через:  Facebook Google Twitter Vk Yandex Mail.ru

Ayabie - Nankyoku - таба, видео

Печатать
Просмотров: 123
This is my first guitar tab, I did some bass before this, hope I got it right!!!
I didn't finish the tab, and I know for a fact that P1 alternate ending is mising a few 
but go easy on me- the rest I'm pretty sure you can get-especially if you listen to the 
as you play.

The rest will be added later

Good Luck!
-fruit_nukes


NANKYOKU- By Ayabie

Effects: ECHO for the INTRO, and Distortion --if you don't have Echo try low Chorus
P1

e----------16---------14--------------14-14--14--12-11-12------------|
B-----14-----17--14-----16-----16--------14--14--12-11-12------------|
G-14------------------------16---------------------------------------|
D--------------------------------------------------------------------|
A--------------------------------------------------------------------|
E--------------------------------------------------------------------|

P2-intro
e--16---------14--------------14---14--14--12-11-12-----------------|
B-----17-14------16-----16---------14--14--12-11-12-----------------|
G-------------------16----------------------------------------------|
D-------------------------------------------------------------------|
A-------------------------------------------------------------------|
E-------------------------------------------------------------------|

ALTERNATE ENDING FOR P1

e----------16---------14---------------14--16-----------|
B-----14-----17--14-----16-----16-------------17--------|
G-14-----------------------16--------------------18-----|
D-------------------------------------------------------|
A-------------------------------------------------------|
E-------------------------------------------------------|


After the intro - DISTORTION
e---------------------------------------------------------|
B---------------------------------------------------------|
G-----------------------------------------9---8---9-------|
D-11-11-11--7--11-11-11--9--11-11-11--9---9---8---9-------|
A-11-11-11--7--11-11-11--9--11-11-11--9---7---6---7-------|
E--9--9--9--9---9--9--9--7---9--9--9--7-------------------|
Добавлено: 25.03.2012
Другие материалы по этой песне:
  • Аккорды и текст

Страница создана 25.03.2012
http://primanota.ru/ayabie/nankyoku-chords.htm
Привет, Гость.
Предлагаем пройти революционный курс по гитаре.
Подарок от PrimaNota.Ru, забирай!