PrimaNota.ru - самый крупный в мире бесплатный архив песенных текстов, аккордов, табулатур и нот


Aya Hirano - Riot Girl - таба, видео

Регистрация Запомнить меня
Войти через:  Facebook Google Twitter Vk Yandex Mail.ru

Aya Hirano - Riot Girl - таба, видео

Печатать
Просмотров: 233
[Lyric] Hirano Aya - RIOT GIRL
ALBUM-RIOT GIRL

INTRO
E|-----------------------------------------------------------------------|
B|-----------------------------------------------------------------------|
G|----------8-X-X-X--10/11/10-8-X-X-X--10/11/10-8-X-X-X--10/11/10-8------|
D|-X-X-8-10-8-X-X-X--10/11/10-8-X-X-X--10/11/10-8-X-X-X--10/11/10-8--10--|
A|-X-X-8-10----------------------------------------------------------10--|
E|-----------------------------------------------------------------------|

E|-----------------------------------------------------------------------|
B|-----------------------------------------------------------------------|
G|----------8-X-X-X--10/11/10-8-X-X-X--10/11/10-8-X-X-X--10/11/10-8------|
D|-X-X-8-10-8-X-X-X--10/11/10-8-X-X-X--10/11/10-8-X-X-X--10/11/10-8--10--|
A|-X-X-8-10----------------------------------------------------------10--|
E|-----------------------------------------------------------------------|

SE REPITE DOS VESES
  F5    C5    A5
E|--------------------------|
B|--------------------------|
G|------5-----3-----3-------|
D|3-----5-----3-----3-------|
A|3-----3-----1-----1-------|
E|1-------------------------|


E|--------------------------|
B|--------------------------|
G|------5-----3-----5-------|
D|3-----5-----3-----5-------|
A|3-----3-----1-----3-------|
E|1-------------------------|

VERSOS
E|---------------------------------------------------------------|
B|---------------------------------------------------------------|
G|---------------55-X-XX-XX-X-X--33-X-XX-XX-X-X--33-X-XX-XX-X-X--|
D|33X-XX-XX-X-X--55-X-XX-XX-X-X--33-X-XX-XX-X-X--33-X-XX-XX-X-X--|
A|33X-XX-XX-X-X--33-X-XX-XX-X-X--11-X-XX-XX-X-X--11-X-XX-XX-X-X--|
E|11X-XX-XX-X-X--------------------------------------------------|
F5                  C5           A5           A5
itsumo to onaji you ni waraikakeru uso mo koi mo

E|---------------------------------------------------------------|
B|---------------------------------------------------------------|
G|---------------55-X-XX-XX-X-X--33-X-XX-XX-X-X--55-X-XX-XX-X-X--|
D|33X-XX-XX-X-X--55-X-XX-XX-X-X--33-X-XX-XX-X-X--55-X-XX-XX-X-X--|
A|33X-XX-XX-X-X--33-X-XX-XX-X-X--11-X-XX-XX-X-X--33-X-XX-XX-X-X--|
E|11X-XX-XX-X-X--------------------------------------------------|

F5                  C5      A5     C5
binetsu ni gomakasarete ii dasenai my darling

E|-----------------------------------------------------------------|
B|-------6-------6-------------------------------------------------|
G|---5-------5-----------5-------5-------3-------3-------3-------3-|
D|-3---3---3---3-----5-------5-------3-------3-------3-------3-----|
A|-----------------3---3---3---3---1---1---1---1---1---1---1---1---|
E|-----------------------------------------------------------------|


anata dake no baby doll sonna'n ga yume ja monotarinai   Wow… Wow…

E|-----------------------------------------------------------------|
B|-------6-------6-------------------------------------------------|
G|---5-------5-----------5-------5-------3-------3-------5-------5-|
D|-3---3---3---3-----5-------5-------3-------3-------5-------5-----|
A|-----------------3---3---3---3---1---1---1---1---3---3---3---3---|
E|-----------------------------------------------------------------|
 Wow… Wow…  kidzukanai furi shiteru
E|----------------------------------------------------------------|
B|----------------------------------------------------------------|
G|-33-X-XX-XX-X-X--33-X-XX-XX-X-X--77-X-XX-XX-X-X--77-X-XX-XX-X-X-|
D|-33-X-XX-XX-X-X--33-X-XX-XX-X-X--77-X-XX-XX-X-X--77-X-XX-XX-X-X-|
A|-11-X-XX-XX-X-X--11-X-XX-XX-X-X--55-X-XX-XX-X-X--55-X-XX-XX-X-X-|
E|----------------------------------------------------------------|
     otonashikute    kawaikute       garasu no kutsu dakishimete


E|-------------------------------------------|
B|-------------------------------------------|
G|---55-X-XX-XX-X-X--55--X-XX-XX-X-X--3-3--5-|
D|---55-X-XX-XX-X-X--55--X-XX-XX-X-X--3-3--5-|
A|---33-X-XX-XX-X-X--33--X-XX-XX-X-X--1-1--3-|
E|-------------------------------------------|
   matte iru…hora,       tsuresatte    yo


 “I'll get you, Baby!”

E|----------------------------------------------|
B|----------------------------------------------|
G|-10----------5--------3---------------5-------|
D|-10----------5--------3---------------5-------|
A|-8-----------3--------1---------------3-------|
E|----------------------------------------------|

kasoku shiteku risou mo honto no hate no mirai mo

E|------------------------------------------|
B|------------------------------------------|
G|-10--------5--------3-------------3-------|
D|-10--------5--------3-------------3-------|
A|-8---------3--------1-------------1-------|
E|------------------------------------------|

   makiokose saa, boudou no chuushinde

E|-------------------------------------------------|
B|-------------------------------------------------|
G|--------10-----------5----------3-------------5--|
D|--------10-----------5----------3-------------5--|
A|--------8------------3----------1-------------3--|
E|-------------------------------------------------|

   daremo tadoritsukenai no nara kirihiraite ike

E|---------------------------------------------|
B|---------------------------------------------|
G|---------------------------------------------|
D|---7----5--------3-----5---------------------|
A|---7----5--------3-----5---------------------|
E|---5----3--------1-----3---------------------|

   omoikkiri wagamama ni kagayaite iyou!


 SE REPITE TODO

F5                  C5           A5
itsumo to onaji you ni ikanai to wa omotteta kedo

F5                  C5      A5          C5
marude kodomo mitai ni okocchau'n da mon my darling

E|-----------------------------------------------------------------|
B|-------6-------6-------------------------------------------------|
G|---5-------5-----------5-------5-------3-------3-------3-------3-|
D|-3---3---3---3-----5-------5-------3-------3-------3-------3-----|
A|-----------------3---3---3---3---1---1---1---1---1---1---1---1---|
E|-----------------------------------------------------------------|
   sayonara mo kikazu ni kakenuketeku mabataku ma ni Wow… Wow…

E|-----------------------------------------------------------------|
B|-------6-------6-------------------------------------------------|
G|---5-------5-----------5-------5-------3-------3-------5-------5-|
D|-3---3---3---3-----5-------5-------3-------3-------5-------5-----|
A|-----------------3---3---3---3---1---1---1---1---3---3---3---3---|
E|-----------------------------------------------------------------|
   Wow… Wow… tsugi wa nani o shiyou ka

E|----------------------------------------------------------------|
B|----------------------------------------------------------------|
G|-33-X-XX-XX-X-X--33-X-XX-XX-X-X--77-X-XX-XX-X-X--77-X-XX-XX-X-X-|
D|-33-X-XX-XX-X-X--33-X-XX-XX-X-X--77-X-XX-XX-X-X--77-X-XX-XX-X-X-|
A|-11-X-XX-XX-X-X--11-X-XX-XX-X-X--55-X-XX-XX-X-X--55-X-XX-XX-X-X-|
E|----------------------------------------------------------------|
   jitto shiteru tte kowai kedo     ouji-sama no  kiss wa  itadai

E|-----------------------------------------|
B|-----------------------------------------|
G|-55-X-XX-XX-X-X--55--X-XX-XX-X-X--3-3--5-|
D|-55-X-XX-XX-X-X--55--X-XX-XX-X-X--3-3--5-|
A|-33-X-XX-XX-X-X--33--X-XX-XX-X-X--1-1--3-|
E|-----------------------------------------|
      chaou   hora,     misetsukete   yo

“You want me, Baby!”

E|------------------------------------------------|
B|------------------------------------------------|
G|-10------------5------------3-----------5-------|
D|-10------------5------------3-----------5-------|
A|-8-------------3------------1-----------3-------|
E|------------------------------------------------|

   kinou made no ashita mo hanpa na kako mo omoi mo

E|------------------------------------------|
B|------------------------------------------|
G|-10------5--------3-----------------3-----|
D|-10------5--------3-----------------3-----|
A|-8-------3--------1-----------------1-----|
E|------------------------------------------|

   fukitobase saa, arashi no chuushin e

E|-------------------------------------------------|
B|-------------------------------------------------|
G|-------10----------5-----------3---------------5-|
D|-------10----------5-----------3---------------5-|
A|-------8-----------3-----------1---------------3-|
E|-------------------------------------------------|

  ushiro nante furimukanai demo michi wa dekite iku

E|----------------------------------------------|
B|----------------------------------------------|
G|----------------------------------------------|
D|---7------5------3----5-----------------------|
A|---7------5------3----5-----------------------|
E|---5------3------1----3-----------------------|

  mi ni matotta watashi kakkoii desho?

E|--------------------------------------------- -------------------------|
B|-----------------------------------------------------------------------|
G|----------8-X-X-X--10/11/10-8-X-X-X--10/11/10-8-X-X-X--10/11/10-8------|
D|-X-X-8-10-8-X-X-X--10/11/10-8-X-X-X--10/11/10-8-X-X-X--10/11/10-8--10--|
A|-X-X-8-10----------------------------------------------------------10--|
E|-----------------------------------------------------------------------|

E|--------------------------------------------- ----------------------|
B|--------------------------------------------------------------------|
G|----------8-X-X-X--10/11/10-8-X-X-X--10/11/10-8-10/11/10-8-10/11/10-|
D|-X-X-8-10-8-X-X-X--10/11/10-8-X-X-X--10/11/10-8-10/11/10-8-10/11/10-|
A|-X-X-8-10-----------------------------------------------------------|
E|--------------------------------------------------------------------|

E|-----------------|
B|-----------------|
G|-8-10/11/10-8----|
D|-8-10/11/10-8----|
A|-----------------|
E|-----------------|

E|--------------------------------------------- -------------------------|
B|-----------------------------------------------------------------------|
G|----------8-X-X-X--10/11/10-8-X-X-X--10/11/10-8-X-X-X--10/11/10-8------|
D|-X-X-8-10-8-X-X-X--10/11/10-8-X-X-X--10/11/10-8-X-X-X--10/11/10-8--10--|
A|-X-X-8-10----------------------------------------------------------10--|
E|-----------------------------------------------------------------------|

E|--------------------------------------------- -------------------------|
B|-----------------------------------------------------------------------|
G|----------8-X-X-X--10/11/10-8-X-X-X--10/11/10-8-X-X-X--10/11/10-8------|
D|-X-X-8-10-8-X-X-X--10/11/10-8-X-X-X--10/11/10-8-X-X-X--10/11/10-8--10--|
A|-X-X-8-10----------------------------------------------------------10--|
E|-----------------------------------------------------------------------|

E|------------------------------|
B|------------------------------|
G|------------------------------|
D|------------------------------|
A|-8/10-10-1010--8710-13--13-13-|
E|-6/8--8--8-8---678--11--11-11-|

E|------------------------------|
B|------------------------------|
G|------------------------------|
D|------------------------------|
A|-8/10-10-1010--8710-13--13-13-|
E|-6/8--8--8-8---678--11--11-11-|

E|------------------------------|
B|------------------------------|
G|------------------------------|
D|------------------------------|
A|-8/10-10-1010--8710-13--13-13-|
E|-6/8--8--8-8---678--11--11-11-|

E|------------------------------|
B|------------------------------|
G|------------------------------|
D|------------------------------|
A|-8/10-10-1010--8710-13--13-13-|
E|-6/8--8--8-8---678--11--11-11-|

E|------------------------------|
B|------------------------------|
G|------------------------------|
D|------------------------------|
A|-8/10-10-1010--8710-13--13-13-|
E|-6/8--8--8-8---678--11--11-11-|

E|------------------------------|
B|------------------------------|
G|------------------------------|
D|------------------------------|
A|-8/10-10-1010--8710-13--13-13-|
E|-6/8--8--8-8---678--11--11-11-|

E|--------------------------------|
B|--------------------------------|
G|--------------------------------|
D|--------------------------------|
A|-8/10-10-1010--8710-13--13-13---|
E|-6/8--8--8-8---678--11--11-11---|
E|--------------------------------|
B|--------------------------------|
G|--------------------------------|
D|--------------------------------|
A|-8/10-10-1010--8710-13-12-11-10-|
E|-6/8--8--8-8---678--11-10-9--8--|

SE REPITE TODO


hashaide'n ja nakute abarete'n da
“girai da” tte yuuwaku shite ageru yo
hora, tanoshin ja ou “Let's go ahead, Baby!”

koko de owaru watashi nara kitto koko made kore nakatta
mawari dase saa, sekai no chuushinde
bakusou shite dokomade iku no? souzou mo tsukanai
watashi dakara dekiru sore ga RIOT GIRL
Добавлено: 22.04.2012
Другие материалы по этой песне:

Страница создана 07.03.2012
http://primanota.ru/aya-hirano/riot-girl-chords.htm
Привет, Гость.
Предлагаем пройти революционный курс по гитаре.
Подарок от PrimaNota.Ru, забирай!