PrimaNota.ru - самый крупный в мире бесплатный архив песенных текстов, аккордов, табулатур и нот


Axxis - Kings Made Of Steel - текст песни, таба, видео

Регистрация Запомнить меня
Войти через:  Facebook Google Twitter Vk Yandex Mail.ru

Axxis - Kings Made Of Steel - текст песни, таба, видео

Печатать
Просмотров: 193
 Intro
e|-----------------------------------------------------------------55---|
B|-----------------------------------------------------------------55---|
G|------------------------------------7----------------------------55---|
D|-----5-7----------5-7-----------5-7----------5-7-----------------77---|
A|-5-8-----5---5 5-8----3-1---5-5--------5-5-8-----3-1-------------77---|
E|------------------------------------------------------5-6-5-6-5--55---|

  Verse
e|--5-----3-3-3-5----1-3----|
B|--5-----3-3-3-5----1-3----|
G|--7-----5-5-5-7----3-5----|  Play 2 times. 
D|--7-----5-5-5-7----3-5----|
A|--5-----3-3-3-5----1-3----|
E|--5-----3-3-3-5----1-3----|


e|--1-3------------------------1-3--5-5--1-3-----|
B|--1-3------------------------1-3--5-5--1-3-----|
G|--3-5------------------------3-5--5-5--3-5-----|
D|--3-5--------5-7--------5-7--3-5--7-7--3-5-----|
A|--1-3--5-5-8------5-5-8------1-3--7-7--1-3-----|
E|--1-3------------------------1-3--5-5--1-3-----|

Refrain 

     F   C   Dm  Bb
e|---1---0---1---1--------------|
B|---1---1---3---3--------------|
G|---2---0---2---3--------------|
D|---3---2---0---3--------------|
A|---3---3---0---1--------------|
E|---1---0---0---1--------------|
Добавлено: 26.07.2013
Другие материалы по этой песне:
  • Аккорды и текст

Страница создана 27.02.2012
http://primanota.ru/axxis/kings-made-of-steel-chords.htm
Привет, Гость.
Предлагаем пройти революционный курс по гитаре.
Подарок от PrimaNota.Ru, забирай!