PrimaNota.ru - самый крупный в мире бесплатный архив песенных текстов, аккордов, табулатур и нот


Axewound - Exorchrist - таба, видео

Регистрация Запомнить меня
Войти через:  Facebook Google Twitter Vk Yandex Mail.ru

Axewound - Exorchrist - таба, видео

Печатать
Просмотров: 264
Exorchrist - AxeWound

Tuning: Drop C

High to Low:
E --> D
B --> A
G --> F
D --> C
A --> G
E --> C


Intro - Rhythm Guitar. Repeat x2
--------------------------------------------------|
--------------------------------------------------|
--------------------------------------------------|
--------------2----------------------2--4---------|
-4--0--2------0--2--4-----4--0--2----0--2--2------|
-4--0--2---------2--4-----4--0--2----------2------|

Lead Guitar - play on 2nd round of intro
--------------------------------------------------|
-14-12----------14-12-----------------------------|
-------13-------------13-14-----------------------|
----------14--------------------------------------|
--------------------------------------------------|
--------------------------------------------------|

--------------------------------------------------|
-14-12--------------------------------------------|
-------13-----------------------------------------|
----------14-----11--9----------------------------|
------------------------11--12--------------------|
--------------------------------------------------|

Pre-Verse
P.M. throughout
--------------------------------------------------------|
--------------------------------------------------------|
--------------------------------------------------------|
----------------------------7-7-6-6-----9-9-7-7-6-6-----|
------------------------------------7-7-------------7-7-|
-4-4--4-4-4-4-4--4-4-4--4-------------------------------|

---------------------------------------------------------|
---------------------------------------------------------|
----------------------------------------9-9-7-7-6-6------|
----------------------------7-7-6-6-----------------7-7--|
------------------------------------7-7------------------|
-4-4--4-4-4-4-4--4-4-4--4--------------------------------|


Verse
P.M.~~~~~~~~         P.M~~~~~~~~~~~~~~~~~~~~~~~~~~
--------------------------------------------------|
--------------------------------------------------|
--------------------------------------------------|
----------------------7-7-6-6-----9-9-7-7-6-6-----|
--------------4-4-------------7-7-------------7-7-|
-4-4--4-4-4-4-4-4---------------------------------|

P.M.~~~~~~~~~
----------------------------------------------------------------|
----------------------------------------------------------------|
----------------------------------------------------------------|
----------------------------------------------------------------|
--------------4-4-----------------------------------------------|
-4-4--4-4-4-4-4-4---0-h2-p0-h2-h3-p2-p0-h2-p0-h2-p0-h2-h3-p2-p0-|


P.M.~~~~~~~~         P.M~~~~~~~~~~~~~~~~~~~~~~~~~~
--------------------------------------------------|
--------------------------------------------------|
--------------------------------------------------|
----------------------7-7-6-6-----9-9-7-7-6-6-----|
--------------4-4-------------7-7-------------7-7-|
-4-4--4-4-4-4-4-4---------------------------------|

P.M.~~~~~~~~         P.M~~~~~~~~~~~~~~~~~~~~~~~~~~~
---------------------------------------------------|
---------------------------------------------------|
-----------------------------------9-9-7-7-6-6-----|
----------------------7-7-6-6------------------7-7-|
--------------4-4-------------7-7------------------|
-4-4--4-4-4-4-4-4----------------------------------|


Pre-Chorus
Rhythm Guitar
--------------------------------------------------|
--------------------------------------------------|
--------------------------------------------------|
--------------------------------------------------|
-16~~~~~~~~~~~~~~~~~~~~~~4~~~~~~~~~~~~~~~~~~~~~~~~|
-16~~~~~~~~~~~~~~~~~~~~~~4~~~~~~~~~~~~~~~~~~~~~~~~|

Lead Guitar
P.M. Throughout. Repeat x7
--------------------------------------------------|
--------------------------------------------------|
--------------------------------------------------|
-4-5-4-5-7-5-4-5-4-5-4-5-7-5-4-5------------------|
--------------------------------------------------|
--------------------------------------------------|

Lead on 8th bar just before Chorus:
P.M. Throughout
--------------------------------------------------|
--------------------------------------------------|
--------------------------------------------------|
-4-5-4-5-4-5-4------------------------------------|
--------------------------------------------------|
--------------------------------------------------|

Chorus:
---------------------------------------------------|
---------------------------------------------------|
---------------------------------------------------|
---------------2---------------------------2--4----|
-4--0--h2-2----0--2--h4-4----4--0--h2-2----0--2--2-|
-4--0--h2-2-------2--h4-4----4--0--h2-2----------2-|

Breakdown
Rhythm Guitar
--------------------------------------------------|
--------------------------------------------------|
--------------------------------------------------|
-4~~~~~~~~~~~~~~~~~~~~~~~~~~~~~~~~~~~~~~~~~~~~~~~~|
--------------------------------------------------|
--------------------------------------------------|

Lead Guitar
P.M. Throughout. Repeat x8
--------------------------------------------------|
--------------------------------------------------|
--------------------------------------------------|
--------------------------------------------------|
--------------------------------------------------|
-4-5-4-5-7-5-4-5-4-5-4-5-7-5-4-5------------------|

                           P.M~~~~~
--------------------------------------------------|
--------------------------------------------------|
--------------------------------------------------|
--------------------------------------------------|
-4--5--4--2--4--2--4--5--4--2--2--2---------------|
-4--5--4--2--4--2--4--5--4--2--2--2---------------|

                             Fret Harmonic
-----------------------------*5--*5--*5-----------|
-----------------------------*5--*5--*5-----------|
-----------------------------*5--*5--*5-----------|
--------------------------------------------------|
-4--5--4--2--4--2--4--5--4------------------------|
-4--5--4--2--4--2--4--5--4------------------------|

    I feel a presence taking over me
--------------------------------------------------|
--------------------------------------------------|
--------------------------------------------------|
--------------------------------------------------|
-0~~~~~~~~~~~~~~~~~~~~2~~~~~~~~~~~~~~~~~~~~~------|
-0~~~~~~~~~~~~~~~~~~~~2~~~~~~~~~~~~~~~~~~~~~------|


Chorus:
---------------------------------------------------|
---------------------------------------------------|
---------------------------------------------------|
---------------2---------------------------2--4----|
-4--0--h2-2----0--2--h4-4----4--0--h2-2----0--2--2-|
-4--0--h2-2-------2--h4-4----4--0--h2-2----------2-|


Pre-Verse as Outro x2:
--------------------------------------------------------|
--------------------------------------------------------|
--------------------------------------------------------|
----------------------------7-7-6-6-----9-9-7-7-6-6-----|
------------------------------------7-7-------------7-7-|
-4-4--4-4-4-4-4--4-4-4--4-------------------------------|

---------------------------------------------------------|
---------------------------------------------------------|
----------------------------------------9-9-7-7-6-6------|
----------------------------7-7-6-6-----------------7-7--|
------------------------------------7-7------------------|
-4-4--4-4-4-4-4--4-4-4--4--------------------------------|

Finale

P.M.~~~~~~~~
------------------|
------------------|
------------------|
------------------|
--------------4-4-|
-4-4--4-4-4-4-4-4-|
Добавлено: 04.06.2013
Другие материалы по этой песне:

Страница создана 04.06.2013
http://primanota.ru/axewound/exorchrist-chords.htm
Привет, Гость.
Предлагаем пройти революционный курс по гитаре.
Подарок от PrimaNota.Ru, забирай!