PrimaNota.ru - самый крупный в мире бесплатный архив песенных текстов, аккордов, табулатур и нот


Axewound - Destroy - таба, видео

Регистрация Запомнить меня
Войти через:  Facebook Google Twitter Vk Yandex Mail.ru

Axewound - Destroy - таба, видео

Печатать
Просмотров: 217
----------------------------------------------------------------------------
                          Axewound - Destroy
----------------------------------------------------------------------------

Tabbed by: Metalrock4ever

Tuning: AEADFB

Intro:
(After repeating this twice, repeat this two more times, but with palm mute)
B|-----------------------------------------------------------------|
F|-----------------------------------------------------------------|
D|-----------------------------------------------------------------|
A|-7-----7-----7-----7-----7---7---6-----6-----6-----6-----6---6---|  x4
E|---8-----8-----8-----8-----8---8---7-----7-----7-----7-----7---7-|
A|-----0-----0-----0-----0-------------0-----0-----0-----0---------|

B|------------------|
F|------------------|
D|-7-7-7777---------|
A|-7-7-7777---------|
E|-5-5-5555-333-6-5-|
A|------------------|


Verse:
(Listen to the music for the rhythms.)
B|----------------------------------------------------------------|
F|----------------------------------------------------------------|
D|----------------------------------------------------------------|
A|-0-00-00---------0--------------0-00-00-------------------------|
E|-0-00-00-333-6-5-0-5-55-333-6-5-0-00-00-333-6-5-3h5-3h5-3-6-5-3-|
A|-0-00-00---------0--------------0-00-00-------------------------|

B|---------------------------|
F|---------------------------|
D|---------------------------|
A|-0000-0000-0000-00---------|
E|-0000-0000-0000-00-333-6-5-|
A|-0000-0000-0000-00---------|

B|----------------------------------------------------------------|
F|----------------------------------------------------------------|
D|----------------------------------------------------------------|
A|-0-00-00---------0--------------0-00-00-------------------------|
E|-0-00-00-333-6-5-0-5-55-333-6-5-0-00-00-333-6-5-3h5-3h5-3-6-5-3-|
A|-0-00-00---------0--------------0-00-00-------------------------|


Pre-Chorus:
B|-----------------------------------------------------------------|
F|-----------------------------------------------------------------|
D|-----------------------------------------------------------------|
A|-7-----7-----7-----7-----7---7---6-----6-----6-----6-----6---6---|  
E|---8-----8-----8-----8-----8---8---7-----7-----7-----7-----7---7-|
A|-----0-----0-----0-----0-------------0-----0-----0-----0---------|


Chorus:
B|------------------------------------------------------------------------|
F|------------------------------------------------------------------------|
D|-----7-7-5-55-5555-3-3-7-7-5-55-5555-----7-7-5-55-5555-1010-99-5--------|
A|-0-0-7-7-5-55-5555-3-3-7-7-5-55-5555-0-0-7-7-5-55-5555-1010-99-5--------|x2
E|-0-0-5-5-3-33-3333-1-1-5-5-3-33-3333-0-0-5-5-3-33-3333-8-8--77-3-55-3-5-|
A|-0-0---------------------------------0-0--------------------------------|


Pre-Verse:
B|------------|
F|------------|
D|------------|
A|-0~-\-------|
E|-0~-\-5h6-5-|
A|-0~-\-------|


Verse 2:
B|----------------------------------------------------------------|
F|----------------------------------------------------------------|
D|----------------------------------------------------------------|
A|-0-00-00---------0--------------0-00-00-------------------------|
E|-0-00-00-333-6-5-0-5-55-333-6-5-0-00-00-333-6-5-3h5-3h5-3-6-5-3-|
A|-0-00-00---------0--------------0-00-00-------------------------|

B|---------------------------|
F|---------------------------|
D|---------------------------|
A|-0000-0000-0000-00---------|
E|-0000-0000-0000-00-333-6-5-|
A|-0000-0000-0000-00---------|

B|----------------------------------------------------------------|
F|----------------------------------------------------------------|
D|----------------------------------------------------------------|
A|-0-00-00---------0--------------0-00-00-------------------------|
E|-0-00-00-333-6-5-0-5-55-333-6-5-0-00-00-333-6-5-3h5-3h5-3-6-5-3-|
A|-0-00-00---------0--------------0-00-00-------------------------|


Pre-Chorus:
B|-----------------------------------------------------------------|
F|-----------------------------------------------------------------|
D|-----------------------------------------------------------------|
A|-7-----7-----7-----7-----7---7---6-----6-----6-----6-----6---6---|  
E|---8-----8-----8-----8-----8---8---7-----7-----7-----7-----7---7-|
A|-----0-----0-----0-----0-------------0-----0-----0-----0---------|


Chorus 2:
B|------------------------------------------------------------------------|
F|------------------------------------------------------------------------|
D|-----7-7-5-55-5555-3-3-7-7-5-55-5555-----7-7-5-55-5555-1010-99-5--------|
A|-0-0-7-7-5-55-5555-3-3-7-7-5-55-5555-0-0-7-7-5-55-5555-1010-99-5--------|x2
E|-0-0-5-5-3-33-3333-1-1-5-5-3-33-3333-0-0-5-5-3-33-3333-8-8--77-3-55-3-5-|
A|-0-0---------------------------------0-0--------------------------------|


Bridge:
B|-------------|
F|-------------|
D|-------------|
A|-0~-0~-0~-0~-|
E|-0~-0~-0~-0~-|
A|-0~-0~-0~-0~-|

Solo Part 1:
B|--------------------|
F|--------------------|
D|-5-7-5-7-5-7-5-9-10-| 
A|--------------------|  x8
E|--------------------|
A|--------------------|

Solo Part 2:
(Play after Solo Part 1 plays solo twice)
B|----------------------|
F|-5-6-5-6-5-6-5-6-8-10-|
D|----------------------|
A|----------------------|  x4
E|----------------------|
A|----------------------|

Then...
Solo Part 1:
B|---------------------|
F|---------------------|
D|---------------------|
A|-----------------2-3-|  x8
E|-3-5-3-5-3-5-3-5-----|
A|---------------------|

Solo Part 2:
B|---------------------|
F|---------------------|
D|---------------------|
A|-----------------2-3-|  x4
E|-3-5-3-5-3-5-3-5-----|
A|---------------------|

B|---------------------|
F|---------------------|
D|-----------------0-2-|
A|-2-3-2-3-2-3-2-3-----|  x4
E|---------------------|
A|---------------------|


Pre-Chorus:
B|-----------------------------------------------------------------|
F|-----------------------------------------------------------------|
D|-----------------------------------------------------------------|
A|-7-----7-----7-----7-----7---7---6-----6-----6-----6-----6---6---|  
E|---8-----8-----8-----8-----8---8---7-----7-----7-----7-----7---7-|
A|-----0-----0-----0-----0-------------0-----0-----0-----0---------|


Chorus:
B|------------------------------------------------------------------------|
F|------------------------------------------------------------------------|
D|-----7-7-5-55-5555-3-3-7-7-5-55-5555-----7-7-5-55-5555-1010-99-5--------|
A|-0-0-7-7-5-55-5555-3-3-7-7-5-55-5555-0-0-7-7-5-55-5555-1010-99-5--------|x2
E|-0-0-5-5-3-33-3333-1-1-5-5-3-33-3333-0-0-5-5-3-33-3333-8-8--77-3-55-3-5-|
A|-0-0---------------------------------0-0--------------------------------|

End on:
(Listen to music for rhythm.)
B|---------------------|
F|---------------------|
D|---------------------|
A|-0000-0000-00---0000-|
E|-0000-0000-00---0000-|
A|-0000-0000-00---0000-|

************************************

| /   slide up
| \   slide down
| h   hammer-on
| ~   vibrato
| +   harmonic
| x   Mute note
| b   Bend

************************************

If you have any comments/corrections, please say in either the comments box 
or leave me a message. Good luck and enjoy! 
Добавлено: 01.07.2013
Другие материалы по этой песне:
  • Аккорды и текст

Страница создана 01.07.2013
http://primanota.ru/axewound/destroy-chords.htm
Привет, Гость.
Предлагаем пройти революционный курс по гитаре.
Подарок от PrimaNota.Ru, забирай!