PrimaNota.ru - самый крупный в мире бесплатный архив песенных текстов, аккордов, табулатур и нот


Axel Rudi Pell - Cry Of The Gypsy - текст песни, таба, видео

Регистрация Запомнить меня
Войти через:  Facebook Google Twitter Vk Yandex Mail.ru

Axel Rudi Pell - Cry Of The Gypsy - текст песни, таба, видео

Печатать
Просмотров: 254
Уроки эстрадного вокала в Санкт-Петербурге
Author/Artist: Axel Rudi Pell
Title: Cry of the Gypsy
Album: A great album
Transcribed by: Henrik Lindholm
Email: blazing_guitar@hotmail.com
Webpage: http://www.awkward.cjb.net  -- Find the most recent tabs

This is one of my favorite songs from Axels albums. The solo really rocks! I 
have
some problems transcribing the wha-wha parts, if anyone have them, give me a 
mail.

Enough talking, here's the song =)


Tuning = Down 1/2 step [EbBbGbDbAbEb]

Intro - 2x

Eb---------------------------------------------------
Bb---------------------------------------------------
Gb---------9-10-9--------------10-----------10-------
Db--7-7-10--------10-7---10-10----5------10----10----
Ab--------------------------------3------------------
Eb---------------------------------------------------

Eb-------------10----------------------7~------------
Bb----------10----10---------10~--10~--8~10~8~-------
Gb--7-7--10----------10-7----10~--10~----10~9~-------
Db---------------------------------------------------
Ab---------------------------------------------------
Eb---------------------------------------------------


Riff 1 - 2x

Eb---------------------------------------------------
Bb---------------------------------------------------
Gb---------9-10-9--------------10-----------10-------
Db--7-7-10--------10-7---10-10----5------10----10----
Ab--------------------------------3------------------
Eb---------------------------------------------------
|
Eb---------------------------------------------------
Bb---------------------------------------------------
Gb---------------------------------------------------
Db--7-7-10-7\----------------------------------------
Ab--5-5-8--5\----------------------------------------
Eb---------------------------------------------------

Eb-------------10----------------------7~------------
Bb----------10----10---------10~--10~--8~10~8~-------
Gb--7-7--10----------10-7----10~--10~----10~9~-------
Db---------------------------------------------------
Ab---------------------------------------------------
Eb---------------------------------------------------


Riff 2 - 1x

Eb---------------------------------------------------
Bb---------------------------------------------------
Gb---------------------------------------------------
Db----7-7-7-8------------7-8b-8-r--7b-r7~------------
Ab------------10--------------------------------------
Eb---------------------------------------------------
|
Eb---------------------------------------------------
Bb---------------------------------------------------
Gb---------------------------------------------------
Db----7-7-7--5-----7-7-7--5------3-------------------
Ab--3-5-5-5--3-----5-5-5--3------1-------------------
Eb---------------------------------------------------

Eb---------------------------------------------------
Bb---------------------------------------------------
Gb---------------------------------------8~(Let ring)
Db---7-7-7-8------------7-8b-8-r--77-8-x-------------
Ab-----------8---------------------------------------
Eb---------------------------------------------------
|
Eb---------------------------------------------------
Bb---------------------------------------------------
Gb---------------------------------------------------
Db---7-7-7--3-----7-7-7----5-----3-------------------
Ab---5-5-5--1-----5-5-5----3-----1-------------------
Eb---------------------------------------------------


Verse 1a - 1x

Eb---------------------------------------------------
Bb---------------------------------------------------
Gb--7-----5-----3-----7---5-----7-----3-----5-------X
Db--7-----5-----3-----7---5-----7-----3-----5-------X
Ab--5-----3-----1-----5---3-----5-----1-----3-------X
Eb---------------------------------------------------


Fill 1

Eb-----------------
Bb--10~-10~-8~-----
Gb--10~-10~-9~-----
Db-----------------
Ab-----------------
Eb-----------------


Verse 1b - 1x

Eb---------------------------------------------------
Bb---------------------------------------------------
Gb--7-----5-----3-----7---5-----7-----3--------------
Db--7-----5-----3-----7---5-----7-----3--------------
Ab--5-----3-----1-----5---3-----5-----1--------------
Eb---------------------------------------------------


Bridge - 1x

Eb---------------------------------------------------
Bb---------------------------------------------------
Gb--5-------------------------5----------------------
Db--5-------7=--5=--3=--------5-------7--------------
Ab--3-------7=--5=--3=--------3-------7--------------
Eb----------5=--3=--1=----------------5--------------


Chorus - 2x

Eb---------------------------------------------------
Bb---------------------------------------------------
Gb---------------------------------------------------
Db---7-7b-r------------------7-7-8b--r-7-8-7---------
Ab----------10~--------------------------------------
Eb---------------------------------------------------
|
Eb---------------------------------------------------
Bb---------------------------------------------------
Gb---------------------------------------------------
Db--7-7-7-5-----------7-7-7-10----5------------------
Ab--5-5-5-3-----------5-5-5-8-----3------------------
Eb---------------------------------------------------

Eb---------------------------------------------------
Bb---------------------------------------------------
Gb---------------------------------------------------
Db----7-7-7-8------------------------*7br--b-r~------
Ab------------8--------------------------------------
Eb---------------------------------------------------
|
Eb---------------------------------------------------
Bb---------------------------------------------------
Gb---------------------------------------------------
Db---7-7-7--3-----------10----5----------------------
Ab---5-5-5--1-----------8-----3----------------------
Eb---------------------------------------------------

* First time only


Interlude - 2x

Eb---------------------------------------------------
Bb---------------------------------------------------
Gb---------9-10-9--------------10-----------10-------
Db--7-7-10--------10-7---10-10----5------10----10----
Ab--------------------------------3------------------
Eb---------------------------------------------------

Eb-------------10----------------------7~------------
Bb----------10----10---------10~--10~--8~10~8~-------
Gb--7-7--10----------10-7----10~--10~----10~9~-------
Db---------------------------------------------------
Ab---------------------------------------------------
Eb---------------------------------------------------


Verse 1a - 1x
Fill 1
Verse 1b - 1x
Bridge - 1x
Chorus 2x

Solo

Eb-----------121712----------------------------------
Bb---------13------13--------------------------------
Gb-------14----------14------------------12--12131513
Db-----14--------------14-----12~--121415--15--------
Ab-1215------------------1512------------------------
Eb---------------------------------------------------


Eb-------------121415b-b-r---------------------------
Bb---13b---1416------------17-16tr17-(16)------------
Gb-15------------------------------------------------
Db----------------------------------------12014015014
Ab---------------------------------------------------
Eb---------------------------------------------------

Eb---------------------------------------------------
Bb---------------------------------------------------
Gb---------------------------------------------------
Db-0170140150140120140150140170140150140120140150140-
Ab---------------------------------------------------
Eb---------------------------------------------------


Eb---------------------------------------------------
Bb------------------------------------ 17>b-r-- 14>\-
Gb--------------------------------------------------\
Db--17014015014012014015014-11tr12-------------------
Ab---------------------------------------------------
Eb---------------------------------------------------

Eb---------------------------------------------------
Bb---------------------------------------------------
Gb-17b.-17.-15.-14.-17.-15.-14.-----14---------------
Db------------------------------17.---171514\12151412
Ab---------------------------------------------------
Eb---------------------------------------------------

Eb---------------------------------------------------
Bb---------------------------------------------------
Gb-----------------------------------------7-5-------
Db-----------------------------------------7-5-10brbr
Ab-151311151311\10131110--1110-------------5-3-------
Eb----------------------13----1311131110\8~----------

Eb------------------------12141517151412-------------
Bb--------------------1315--------------1513--1315b--
Gb--------------121415----------------------15-------
Db--------121415-------------------------------------
Ab--121315-------------------------------------------
Eb---------------------------------------------------

Eb---------------------------------------------------
Bb-15~-----------------------------------------------
Gb---------------------------------------------------
Db---------------------------------------------------
Ab---------------------------------------------------
Eb---------------------------------------------------


Chorus 4x


Outro

Eb---------------------------------------------------
Bb---------------------------------------------------
Gb---------9-10-9------------10--------4-------------
Db--7-7-10--------10-7-10-10----10-4-4---4-----------
Ab---------------------------------------------------
Eb---------------------------------------------------
   ' ' '  ' '  ' '  ' '  '  '  '  ' ' ' '

Eb-------------10------------------------------------
Bb----------10----10---------------8----------------
Gb--7-7--10----------10-7-10-10-10---10-9------------
Db----------------------------------------10---------
Ab---------------------------------------------------
Eb---------------------------------------------------
   ' '  '  '  '  '  '  ' '  '  '  ' '  ' '

*********************** Legend **********************

h: Hammer on
p: Pull of
b: Bend
r: Release
tr: Trill
': Palm mute
*: Important note
 7>: Artificial Harmonic
~: Vibrato
(7): Ghost note
X: Muted note

*****************************************************

     
Добавлено: 14.06.2013
Другие материалы по этой песне:

Страница создана 24.03.2012
http://primanota.ru/axel-rudi-pell/cry-of-the-gypsy-chords.htm
Привет, Гость.
Предлагаем пройти революционный курс по гитаре.
Подарок от PrimaNota.Ru, забирай!