PrimaNota.ru - самый крупный в мире бесплатный архив песенных текстов, аккордов, табулатур и нот


Axe - Rock N Roll Party In The Street - таба, видео

Регистрация Запомнить меня
Войти через:  Facebook Google Twitter Vk Yandex Mail.ru

Axe - Rock N Roll Party In The Street - таба, видео

Печатать
Просмотров: 191
Уроки эстрадного вокала в Санкт-Петербурге
I was listening to This Song recently with My Friend,
and wanted to play it,
so i looked it up on Ultimate Guitar,

and it was not here,

so me and my Friend got it by ear,

this is what we got,
(if i get more of it tabbed ill Put it on here)

Song: Rock 'n' Roll Party in the Street
Band: Axe
Album: Offerings
Tabbed by: Zack


-Intro-

e|------------------------------|
B|------------------------------|
G|--9-9---9-9---7-7---7-7-------|
D|--9-9---9-9---7-7---7-7-------|
A|--7-7---7-7---5-5---5-5-------|
E|------------------------------|

e|------------------------------|
B|------------------------------|
G|--4-4--5-5--7-7--12--12-11----|
D|--4-4--5-5--7-7--12--12-11----|
A|--2-2--3-3--5-5--10--10-9-----|
E|------------------------------|

-Zack
Добавлено: 04.11.2013
Другие материалы по этой песне:
  • Аккорды и текст

Страница создана 04.11.2013
http://primanota.ru/axe/rock-n-roll-party-in-the-street-chords.htm
Привет, Гость.
Предлагаем пройти революционный курс по гитаре.
Подарок от PrimaNota.Ru, забирай!