PrimaNota.ru - самый крупный в мире бесплатный архив песенных текстов, аккордов, табулатур и нот


Awie - Nur Nilam Sari - таба, видео

Регистрация Запомнить меня
Войти через:  Facebook Google Twitter Vk Yandex Mail.ru

Awie - Nur Nilam Sari - таба, видео

Печатать
Просмотров: 135
NUR NILAM SARI
(SEARCH & AWIE)

 
 
Intro(F key)
A#	Am	A#	C
A#	Dm	D#	D#DCD#	D#DC F FD#D F DFD~


(solo time starting)
|------------------------------------12h13----------------------------------------------------|
|-----------11^-----------------11^--------13------11^11^~~-----------------------------------|
|--------10-----10~-------10------------------10-9--------------------------------------------|
|----\12--------------\12----12---------------------------------------------------------------|
|---------------------------------------------------------------------------------------------|
|---------------------------------------------------------------------------------------------|


|-----------------------------------------------------------------------|
|--\11~-10~-11p10p8----8-10-8~------------------------------------------|
|-------------------10--------------------------------------------------|
|------------------------------10~-10~----------------------------------|
|-----------------------------------------------------------------------|
|-----------------------------------------------------------------------|

|-------------------------------10----10-------------------13^^-13^^--10h13-10~10~--|
|----------------------------------13-----------------------------------------------|
|-----------------10~-12-10-12^------------12^-12-10-12-10--------------------------|
|-\10-8-10-10\12--------------------------------------------------------------------|
|-----------------------------------------------------------------------------------|
|-----------------------------------------------------------------------------------|


Lead time verse

pinjam.....nurnilam sari
|----------------------------------------------------------------|
|----------------------------------------------------------------|
|----------------------------------------------------------------|
|-----12p10-10-10\12~~-------------------------------------------|
|----------------------------------------------------------------|
|----------------------------------------------------------------|

bagaikan awan.....
|----------------------------------------------------------------|
|----------------------------------------------------------------|
|----------------------------------------------------------------|
|-----14^14^14~-12\10-10\12~~~-----------------------------------|
|----------------------------------------------------------------|
|----------------------------------------------------------------|

di sempadan...
|----------------------------------------------------------------|
|--15-15-13~~----------------------------------------------------|
|----------------------------------------------------------------|
|----------------------------------------------------------------|
|----------------------------------------------------------------|
|----------------------------------------------------------------|

Dm			Am
Pinjam sinarmu Nur Nilam Sari
A#		       C	
Buatku merempuhi malam
Dm			Am
Kabus berlabuh bagaikan awan
A#		   C	
Mengaburi penglihatan
Gm			C
Menyekat maksud di sempadan
Gm			    C
Redup yang ku pasangkan angan

(time bridge)
|----------------------------------------------------|
|----------------------------------------------------|
|----------------------------------------------------|
|---7~5~3~-------------------------------------------|
|----------------------------------------------------|
|----------------------------------------------------|

|----------------------------------------------------|
|----------------------------------------------------|
|------14^^------------------------------------------|
|----------------------------------------------------|
|----------------------------------------------------|
|----------------------------------------------------|


F		
Sekadar berhasrat 
Dm
Berlindung dalam lena
Am
Pejamkan mata untuk ku lupakan sengsara
                A#
Berapa kerdipan  melaraskan jiwa
	C
Menyusun ke arah asalku


(time chorus)
xpernah kenal erti bahagia....

|----------------------------------------------------------------|
|------------------13h15-13~~------------------------------------|
|-----12h14-12---------------------------------------------------|
|--12----------14------------------------------------------------|
|----------------------------------------------------------------|
|----------------------------------------------------------------|

F		Gm
Senyuman satu azimat 
C		
Buat diriku yang hina manusia terpinggir
         F
Hidup melara
		Gm
Tak pernah kenal erti bahagia
	C
Namunku masih gembira bagiku rahmat 
         F	
Semuanya


     Am
Oh mungkin kalau nasibku berbeza
A#			C		
Aku tak mampu menilaikan dikau

solo 
|--------------------------------------------------------------------------------|
|-----t15--6h8p6-t13-6h8p6-t11-6h8p6-t13-6h8p6-t15-6h8p6-t13-6h8p6-t11-6h8p6-t13-|
|--------------------------------------------------------------------------------|
|--------------------------------------------------------------------------------|
|--------------------------------------------------------------------------------|
|--------------------------------------------------------------------------------|

  sambung trus dr atas.
  ----------------------------------------------------------------------------|
  6h8p6-t11-6h8p6-t13-6h8p6-t15-6h8p6-t15-6h8p6-t17-6h8p6-t17-6h8p6-18~~------|
  ----------------------------------------------------------------------------|
  ----------------------------------------------------------------------------|
  ----------------------------------------------------------------------------|
  ----------------------------------------------------------------------------|

|--------------------------------------------------------------------------|
|------18^----18^----18^----18^----18^~----------------------17^-17~~------|
|--\17-----17-----17-----17-----17------17^-17~------12^-15^--------------|
|--------------------------------------------------------------------------|
|--------------------------------------------------------------------------|
|--------------------------------------------------------------------------|

|---------------------------------------------------------------------------|
|---------------------------------------------------------------------------|
|-----------------\12~--9~--9\10~--10\14~--10~--10\12~~---------------------|
|--3~--5-7-7\10~----------------------------------------10-10~--------------|
|---------------------------------------------------------------------------|
|---------------------------------------------------------------------------|

|---------------------------------------------------------------------------|
|-----------------------------------------------11^^~--13^1313^-13~-11-10~--|
|--------------------12^12^~12-10-9-9^-9-9^-9~------------------------------|
|--15-15/19/15-14-12--------------------------------------------------------|
|--13-13/17/13-12-10--------------------------------------------------------|
|---------------------------------------------------------------------------|

|---13-12h13h15p13p12-------------------------------------------------------------------------|
|---------------------11-10h11h13p11p10-------------------------------------------------------|
|---------------------------------------10-9h10h12p10p9---------------------------------------|
|-------------------------------------------------------10-8h10h12p10p8-----------------------|
|-----------------------------------------------------------------------10-8h10h12p10p8-10~~~-|
|---------------------------------------------------------------------------------------------|

F	C	F	C
F	C	A#	C
Dm	Am	A# 	C			

Gm
Aku berani berani aku
		C
Katakan dirimu itu…dewi kayangan

Repeat chorus

A#			D#		
Peperangan yang melanda diriku 
C
Kini sudah berakhir ooh… berakhir
A#			D#
Kepahitan dulu bertukar menjadi sejarah
	C
Dan kenangan manis…

solo 
|-------------------------------------------------|
|-------------------------------------------------|
|-----------------------------------------5h7p5---|
|------------------10/12/10/5~----5h7p5-7---------|
|-8-8--10-10/12-12--------------7-----------------|
|-------------------------------------------------|

|-------------------------------------------------|
|--------------------10----10-11-10-11-11/13~~----|
|---10-9-10-12-10-12----12------------------------|
|-------------------------------------------------|
|-------------------------------------------------|
|-------------------------------------------------|
by:

Manda
Добавлено: 25.02.2012
Другие материалы по этой песне:
  • Аккорды и текст

Страница создана 25.02.2012
http://primanota.ru/awie/nur-nilam-sari-chords.htm
Привет, Гость.
Предлагаем пройти революционный курс по гитаре.
Подарок от PrimaNota.Ru, забирай!