PrimaNota.ru - самый крупный в мире бесплатный архив песенных текстов, аккордов, табулатур и нот


Away We Go - The City Of Sin With A Twist Of Tulips - таба, видео

Регистрация Запомнить меня
Войти через:  Facebook Google Twitter Vk Yandex Mail.ru

Away We Go - The City Of Sin With A Twist Of Tulips - таба, видео

Печатать
Просмотров: 111
Web: http://www.myspace.com/awaywegorock
http://www.purevolume.com/weareawaywego

Band: Away We Go
Song: The City of Sin With a Twist of Tulips
Album: Lights! Camera! Attraction! EP
Tuning: Drop D
Transcribed by: boknoykatok (katokblog.blogspot.com)


ACOUSTIC Guitar Tab for "The City of Sin With a Twist of Tulips"
by Away We Go!

also works for the full band version.

this is basically my first attempt to submit a tab.
because i dont like writing it on the pc.
the only reason is that NOBODY cared to tab this one.
this is a great song from a very unknown band.
but they broke up now, i can only wonder what songs
they would've made in the future.
another great talent gone to the trash bin.


INTRO lead guitar:

-5-5-5-5-5-5-----------------------------------|
-7-7-8-5-5-7-7---------------------------------|
-7-7-7-7-7-7-7-7-6-7-7/9-----------------------|
-------------5-5-5-5-5/7-----------------------|
-----------------------------------------------|
-----------------------------------------------|

-----------------------------------------------|
-----------------------------------------------|
-14-14-14--12-12-12-12--11-11-11-11--9-9-9-9---|
-----------------------------------------------|
-12-12-12--10-10-10-10---9--9--9--9--7-7-7-7---|
-----------------------------------------------|

-----------------------------------------------|
-----------------------------------------------|
-14-14-14--12-12-12-11-11-11-9-9---9/11-9-7----|
-----------------------------------------------|
-12-12-12--10-10-10--9--9--9-7-7---7/9--7-5----|
-----------------------------------------------|


VERSE rhythm guitar:

d
d-f#m-g
g-a-bm
bm-f#m-g-; g-/a

d
d-f#m-g
g-a-bm-; bm-a a-g ggg-/a

lead guitar:

-5-5-5-5-5-5-----------------------------------|
-7-7-8-5-5-7-7---------------------------------|
-7-7-7-7-7-7-7-7-6-7-7/9-----------------------|
-------------5-5-5-5-5/7-----------------------|
-----------------------------------------------|
-----------------------------------------------|

-5-5-5-5-5-5-----------------------------------|
-7-7-8-5-5-7-7---------------------------------|
-7-7-7-7-7-7-7-7-6-7-7-7/9---------------------|
-------------5-5-5-5-5-5/7---------------------|
-----------------------------------------------|
-----------------------------------------------|

REFRAIN rhythm:

d-a-g-; f#m-/g-f#m-/g-; bm--f#m-f#m-/g-g

lead guitar:

-5-5-5-5-5-5--5-5-5-5---------------------------|
-7-7-5-5h7-7--7h5-7h5---------------------------|
-7-7-7-7-7-7--7-7-7-7------------14--7-7/11-11--|
------------------------------------------------|
---------------------------------12--7-7/9--9---|
------------------------------------------------|
 [------------------]
   \___
       > not sure on this part. just improvise!

CHORUS rhythm:

d f#m-g a-bm a-g g-a

lead:

-----------------------------------------------|
-----------------------------------------------|
-14-14-14--12-12-12-12--11-11-11-11--9-9-9-9---|
-----------------------------------------------|
-12-12-12--10-10-10-10---9--9--9--9--7-7-7-7---|
-----------------------------------------------|

-----------------------------------------------|
-----------------------------------------------|
-14-14-14--12-12-12-11-11-11-9-9---9/11-9-7----|
-----------------------------------------------|
-12-12-12--10-10-10--9--9--9-7-7---7/9--7-5----|
-----------------------------------------------|


repeat VERSE then REFRAIN then CHORUS


BRIDGE:
(3rd guitar, on the EP, this part are bass notes)
------------------|
------------------|
-7-7-7-7-7777-77--|
---------4444-55--| 4x
-4-4-5-5-4444-55--|
---------4444-55--|

in the EP something like this is played by the lead guitar
on the 3rd time the bass lines are played.
----------10----------------10-----------------|
----10--10--10--10----10--10--10--10-----------|
-----------------------------------------------|
--12--12------12----12--12------12-------------|
-----------------------------------------------|
-----------------------------------------------|

(then lead guitar comes in)
------------------|
------------------|
-7-7-7-7-7777-77--|
---------4444-55--| 4x
-4-4-5-5-4444-55--|
---------4444-55--|

lead:
----------------------------    ------------------|
----------------------------    ------------------|
-14-14-11-11-7-7/9-9/11-9-7- 4x ---14--9-9/11-11--|
--------------------------- then -----------------|
-12-12-9--9--5-5/7-7/9--7-5-    ---12--7-7/9--9---|
----------------------------    ------------------|


chorus 2x


OUTRO:

------------------|
------------------|
-7-7-7-7-7777-77--|  play
---------4444-55--|   4x
-4-4-5-5-4444-55--|
---------4444-55--|

----------------------------|
----------------------------|
-14-14-11-11-7-7/9-9/11-9-7-|  play
----------------------------|   4x
-12-12-9--9--5-5/7-7/9--7-5-|
----------------------------|


you may find this not PERFECT. but its quite accurate!
just listen to the song. or go to their youtube channel.
youtube.com/awaywegoband

comment suggestions and violent reactions are welcome.
that's basically it! thanks and please rate.

p.s. if you tab another version for this song, pls include the lyrics! i can't 
some of the words shes singing!
Добавлено: 10.06.2012
Другие материалы по этой песне:
  • Аккорды и текст

Страница создана 10.06.2012
http://primanota.ru/away-we-go/the-city-of-sin-with-a-twist-of-tulips-chords.htm
Привет, Гость.
Предлагаем пройти революционный курс по гитаре.
Подарок от PrimaNota.Ru, забирай!