PrimaNota.ru - самый крупный в мире бесплатный архив песенных текстов, аккордов, табулатур и нот


Awaken - Progress With Punishment - таба, видео

Регистрация Запомнить меня
Войти через:  Facebook Google Twitter Vk Yandex Mail.ru

Awaken - Progress With Punishment - таба, видео

Печатать
Просмотров: 108
-----------------------------------------------------------------------------
                     Progress With Punishment - Awaken
-----------------------------------------------------------------------------
Tabbed by: Jamie
Submitted: sam b

Tuning: Db

http://www.awakenuk.co.uk

Intro
eb|-------------------------------------------------------------| |---------|
Bb|-------------------------------------------------------------| |---------|
Gb|-------------------------------------------------------------| |---------|
Db|-------------------------------------------------------------| |---------|
Ab|-------------------------------------------------------------| |-8-6-----|
Db|3-3-3-1-3-1-3--1-3~--1-3-1-3--1-3~--1-3-1-3--1-3~--1-3-1-6-8-| |-----9-8-|

Intro cont'd AND Chorus riff
|---------------------------------------------------------------|
|---------------------------------------------------------------|
|---------------------------------------------------------------|
|--3---6--8-9-6------------------3---6--8-9-8-------------------|
|--3---6--8-9-6----8-6-----------3---6--8-9-8----8-6------------|
|--3---6--8-9-6--------9-8-6-3---3---6--8-9-8--------9-8-6-8----|

|----------------------------------------------------|
|----------------------------------------------------|
|----------------------------------------------------|
|----------------------------------------------------|
|--8-8-8p6-6--8-8-8-8-6-----8-8-8p6-6--8-8-8-8-6-----|
|-----------------------8~-----------------------8~--|

Verse
|-------------------------------------------------------------|  |---------|
|-------------------------------------------------------------|  |---------|
|-------------------------------------------------------------|  |---------|
|--3-3-3-1-3-1-3--1-3--1-3-1-3--1-3--1-3-1-3--1-3--1-3-1-6-8--|  |---------|
|--3-3-3-1-3-1-3--1-3--1-3-1-3--1-3--1-3-1-3--1-3--1-3-1-6-8--|  |-8-6-----|
|--3-3-3-1-3-1-3--1-3--1-3-1-3--1-3--1-3-1-3--1-3--1-3-1-6-8--|  |-----9-8-|
Slighty Palm muted. .  . . . .  . .  . . . .  . .  . . .

Back to Chorus riff
After chorus...
|--------------------------------|
|--------------------------------|
|--------------------------------|
|--1-1-1--0-0-0--1-1-1--0-0-0----| <<< play that lots
|--1-1-1--0-0-0--1-1-1--0-0-0----|
|--1-1-1--0-0-0--1-1-1--0-0-0----|
PM . .    . .    . .    . .

Добавлено: 29.05.2012
Другие материалы по этой песне:
  • Аккорды и текст

Страница создана 29.05.2012
http://primanota.ru/awaken/progress-with-punishment-chords.htm
Привет, Гость.
Предлагаем пройти революционный курс по гитаре.
Подарок от PrimaNota.Ru, забирай!