PrimaNota.ru - самый крупный в мире бесплатный архив песенных текстов, аккордов, табулатур и нот


Avulsed - Blessed By Gore - текст песни, таба, видео

Регистрация Запомнить меня
Войти через:  Facebook Google Twitter Vk Yandex Mail.ru

Avulsed - Blessed By Gore - текст песни, таба, видео

Печатать
Просмотров: 155
Band: Avulsed
Album: Stabwound Orgasm
Song: Blessed By Gore
Record Label: WWIII
Tuning: CGCFAD

---------------------------------------------|
---------------------------------------------|
---------------------------------------------|
-------7-3-2-3-5-3-2---------7-3-2-3-5-3-2---|
-2-2-----------------2-2-2-2-----------------|
-2-2-----------------2-2-2-2-----------------|X2

---------------------------------------------------------------------------|
---------------------------------------------------------------------------|
---------------------------------------------------------------------------|
---------------------------------------------------------------------------|
-0-2-3-5-3-2-0-9----9-8-6-8-7-5-3-0----2-3-5-3-2-0-3---0-2-3-5-3-2-0-------|
-0-2-3-5-3-2-0-9----9-8-6-8-7-5-3-0----2-3-5-3-2-0-3---0-2-3-5-3-2-0-------|X2

---------------------------------------------|
---------------------------------------------|
---------------------------------------------|
-------7-3-2-3-5-3-2---------7-3-2-3-5-3-2---|
-2-2-----------------2-2-2-2-----------------|
-2-2-----------------2-2-2-2-----------------|X2

---------------------------------------------------------------------------|
---------------------------------------------------------------------------|
---------------------------------------------------------------------------|
---------------------------------------------------------------------------|
-0-2-3-5-3-2-0-9----9-8-6-8-7-5-3-0----2-3-5-3-2-0-3---0-2-3-5-3-2-0-------|
-0-2-3-5-3-2-0-9----9-8-6-8-7-5-3-0----2-3-5-3-2-0-3---0-2-3-5-3-2-0-------|X2

------------------------------------------------------|
------------------------------------------------------|
------------------------------------------------------|
------------------------------------------------------|
-2----------3----------0----------3-0-2-3-6-654-654-2-|
-2-10-9-7-6-3-10-9-7-6-0-10-9-7-6-3-0-2-3-6-654-654-2-|

------------------------------------------------------|
------------------------------------------------------|
------------------------------------------------------|
------------------------------------------------------|
----------3-----------0----------3-----------------2--|
-10-9-7-6-3-12-10-9-7-0-10-9-7-6-3-0-2-3-6-654-654-2--|

------------------------------------------------------|
------------------------------------------------------|
------------------------------------------------------|
------------------------------------------------------|
-2----------3----------0----------3-0-2-3-6-654-654-2-|
-2-10-9-7-6-3-10-9-7-6-0-10-9-7-6-3-0-2-3-6-654-654-2-|

----------------------------------------------------|
----------------------------------------------------|
----------------------------------------------------|
----------------------------------------------------|
-2----------3-8-7-5-3-0-----------0-2-3-6-----------|
-2-10-9-7-6-3---------0-7-6-3-2-3-0-2-3-6-654-654---|

---------------------------------------------|
---------------------------------------------|
---------------------------------------------|
-------7-3-2-3-5-3-2---------7-3-2-3-5-3-2---|
-2-2-----------------2-2-2-2-----------------|
-2-2-----------------2-2-2-2-----------------|X2

---------------------------------------------------------------------------|
---------------------------------------------------------------------------|
---------------------------------------------------------------------------|
---------------------------------------------------------------------------|
-0-2-3-5-3-2-0-9----9-8-6-8-7-5-3-0----2-3-5-3-2-0-3---0-2-3-5-3-2-0-------|
-0-2-3-5-3-2-0-9----9-8-6-8-7-5-3-0----2-3-5-3-2-0-3---0-2-3-5-3-2-0-------|X2

---------------------------------------------------------------|
---------------------------------------------------------------|
---------------------------------------------------------------|
---------------------------------------------------------------|
-2222222222222011111111111111122222222222220111111100000000----|
-2222222222222011111111111111122222222222220111111100000000----|X2
listen for the rythm here

---------------------------------------------|
---------------------------------------------|
-----------------------2-0-2-----------------|
------------------3-2--------3-2-------------|
-3------2--------5---5-----------5-3-2-0-3---|
--222222-22276732----------------------------|

-------------------------------------------|
-------------------------------------------|
-------------------------------------------|
-----------------3-2--3-2-3----------------|
-------2--------5---5-------5-3-5-3-2-0----|
-222222-22276732---------------------------|X2

                                  ph
--------------------------------------|
--------------------------------------|
----------------------------------5---|
--------------------------------------|
-20020020020020208008080303003030-----|
-20020020020020208008080303003030-----|X4

---------------------------------------------|
---------------------------------------------|
-----------------------2-0-2-----------------|
------------------3-2--------3-2-------------|
-3------2--------5---5-----------5-3-2-0-3---|
--222222-22276732----------------------------|

-------------------------------------------|
-------------------------------------------|
-------------------------------------------|
-----------------3-2--3-2-3----------------|
-------2--------5---5-------5-3-5-3-2-0----|
-222222-22276732---------------------------|X2

                              ph
---------------------------------------|
------------------------------6--------|
---------------------------------------|
---------------------------------------|
-2-222--2-22-5-555-5---363-------------|
-2-222--2-22-5-555-5---363-------------|X8

                                  ph
--------------------------------------|
--------------------------------------|
----------------------------------5---|
--------------------------------------|
-20020020020020208008080303003030-----|
-20020020020020208008080303003030-----|X4
Добавлено: 20.06.2012
Другие материалы по этой песне:

Страница создана 28.02.2012
http://primanota.ru/avulsed/blessed-by-gore-chords.htm
Привет, Гость.
Предлагаем пройти революционный курс по гитаре.
Подарок от PrimaNota.Ru, забирай!