PrimaNota.ru - самый крупный в мире бесплатный архив песенных текстов, аккордов, табулатур и нот


Автоматические удовлетворители - Всецело - аккорды и текст, видео

Регистрация Запомнить меня
Войти через:  Facebook Google Twitter Vk Yandex Mail.ru

Автоматические удовлетворители - Всецело - аккорды и текст, видео

Печатать
Просмотров: 260
Всецело
Автоматические удовлетворители
Некоторые наброски соло:

    Соло №1
    4|----------------------4------4---
    3|-7-6-7-6-7---9-7-6--4----4-4---4-
    2|---------------------------------
    1|---------------------------------

    4|---------------------------------
    3|---------------------------------
    2|-8-7-8-7-8--10-8-7--5--------10--
    1|----------------------7-9-12-----

    Соло №2
    4|---------------------------------
    3|-7-6-7-6-7--9-7-6--4---4-4-------
    2|-------------------------------7-
    1|---------------------------------

    4|---------------------------------
    3|---------------------------------
    2|-8-7-8-7-8--10-8-7--5--------10--
    1|----------------------7-9-12-----

    Импровизируйте!!!


Вступление и проигрыш: D Hm G Em (вместе с соло)

D               Hm
Я хочу владеть тобой всецело,
Em            A
Обнимать твое большое тело.
Целовать твои тугие губы,
Я желаю, я хочу тебя! (Я хочу тебя...)

По небу рассыпаны алмазы,
Где-то совершаются экстазы.
Я хочу иметь на это право,
Я желаю, я хочу тебя! (Я хочу тебя...)

  Ла! Ла-ла! Ла-ла! Ла-ла-ла! Ла-ла!
  Ла! Ла-ла! Ла-ла! Ла-ла-ла! Ла!

Я хочу иметь с тобою дело,
Мне плевать на жирные тела.
Ты сегодня песенку мне спела,
Песенка твоя любви полна!

  Ла! Ла-ла! Ла-ла! Ла-ла-ла! Ла-ла!
  Ла! Ла-ла! Ла-ла! Ла-ла-ла! Ла!
  Ла! Ла-ла! Ла-ла! Ла-ла-ла! Ла-ла!
  Ла! Ла-ла! Ла-ла! Ла-ла-ла! Ла!

Добавлено: 31.10.2013
Другие материалы по этой песне:
  • Аккорды и текст

Страница создана 31.10.2013
http://primanota.ru/avtomaticheskie-udovletvoriteli/vsecelo-chords.htm
Привет, Гость.
Предлагаем пройти революционный курс по гитаре.
Подарок от PrimaNota.Ru, забирай!