PrimaNota.ru - самый крупный в мире бесплатный архив песенных текстов, аккордов, табулатур и нот


Автоматические удовлетворители - Город - аккорды и текст, видео

Регистрация Запомнить меня
Войти через:  Facebook Google Twitter Vk Yandex Mail.ru

Автоматические удовлетворители - Город - аккорды и текст, видео

Печатать
Просмотров: 246
Уроки эстрадного вокала в Санкт-Петербурге
Город
Автоматические удовлетворители
Вступление:
    (G-III) (E-II)  (C-III) (D-V)
6|--------------------------------
5|--------------------------------
4|-5-------2-------5-------7------
3|--4---4---4---4---5-------7---7-
2|---353-----575-----5--7----787--
1|--------------------75----------

Рифф:

6|-33-33--2-3-55-55--7-5-
5|-55-55--4-5-77-77--9-7-
4|-55-55--4-5-77-77--9-7-
3|-----------------------
2|-----------------------
1|-----------------------

Добавлено: 03.09.2013
Другие материалы по этой песне:
  • Аккорды и текст

Страница создана 03.09.2013
http://primanota.ru/avtomaticheskie-udovletvoriteli/gorod-chords.htm
Привет, Гость.
Предлагаем пройти революционный курс по гитаре.
Подарок от PrimaNota.Ru, забирай!