PrimaNota.ru - самый крупный в мире бесплатный архив песенных текстов, аккордов, табулатур и нот


Aviv Geffen - Yoman Masa - аккорды и текст, видео

Регистрация Запомнить меня
Войти через:  Facebook Google Twitter Vk Yandex Mail.ru

Aviv Geffen - Yoman Masa - аккорды и текст, видео

Печатать
Просмотров: 112
Уроки эстрадного вокала в Санкт-Петербурге
Yoman Masa
Aviv Geffen
פתיחה:
    Cm          Bb        Ab      Gm      Fm  Gm            Cm   
e||-----6------------------------------------------------------||
B||-8h9-----6h8-9-----6-6h8-------6------------------6---------||
G||-----------------8---------7h8-----8p7p5----7h8-7-----8p7p5-||
D||------------------------------------------------------------||
A||------------------------------------------------------------||
E||------------------------------------------------------------||
Fm Ab    C#  Bb          Cm
אינספור שבילים   ויציאה  
Cm Bb Ab       Ddim    Fm
רושם בתוך יומן מסע 
Fm Ab         C# Bb    Cm
להתערבב   ולא להיבלע  
Bb Ab       Ddim    Fm
רושם בתוך יומן מסע 
Eb        Bb       F/Eb  Eb
והיה  ומישהו בא אל תסתובב  
 Bb        F/Eb     Eb
כי זה תמיד יכול להיות 
 Dm        Gm      
זה שידליק לך את הלב
Ab7M    Bb     Cm       C#  
יפרוק את הכאב בשלווה 
...מעבר כמו הפתיחה
Fm Ab          C# Bb    Cm
מגע הרוך  גובר על המכה 
Cm Bb Ab       Ddim    Fm
רושם בתוך יומן מסע 
Fm Ab      C#      Bb   Cm 
כולנו עשויים אבק של אהבה
Bb Ab       Ddim    Fm
רושם בתוך יומן מסע 
 Eb        Bb      F/Eb  Eb
מביטים למעלה ונושאים תפילות
 Bb      F/Eb  Eb
כשבינתיים שוכחים 
 Dm       Gm  
שהמשמעות לחיות
Ab7M    Bb     Cm       C#      
היא לשאול את השאלות ולענות
סולו:
    Cm       Bb C#         Ab  Fm     Ddim  Ab  Bb 
e||------------------------------6h8---6h8--------|
B||-6-6h8----6----6-8-9s11-8----------------8---6-|
G||--------8--------------------------------------|
D||-----------------------------------------------|
A||-----------------------------------------------|
E||-----------------------------------------------|
   Cm            Bb         C#               Ab    
e|------------------------------------------------|
B|------8-8-------------------------------9-8h9---|
G|-8-10------10-8-7-8-10-10----6h8-10-10--------8-|
D|------------------------------------------------|
A|------------------------------------------------|
E|------------------------------------------------|
   Fm          Ddim      Ab            Bb             Cm   
e|------------------8-8--8h10-11-----8-10--8-------------||
B|----8-9-9--9-9s11---------------11---------11-9-8------||
G|-10-----------------------------------------------10-8-||
D|-------------------------------------------------------||
A|-------------------------------------------------------||
E|-------------------------------------------------------||
Eb        Bb       F/Eb Eb
והיה ומישהו בא אל תסתובב  
 Bb        F/Eb     Eb
כי זה תמיד יכול להיות 
Dm         Gm      
זה שידליק לך את הלב
Ab7M   Bb    Cm       C#  
יפרוק את הכאב בשלווה
Добавлено: 16.10.2015
Другие материалы по этой песне:
  • Аккорды и текст

Страница создана 16.10.2015
http://primanota.ru/aviv-geffen/yoman-masa-chords.htm
Привет, Гость.
Предлагаем пройти революционный курс по гитаре.
Подарок от PrimaNota.Ru, забирай!