PrimaNota.ru - самый крупный в мире бесплатный архив песенных текстов, аккордов, табулатур и нот


Aviv Geffen - Keren Or - аккорды и текст, видео

Регистрация Запомнить меня
Войти через:  Facebook Google Twitter Vk Yandex Mail.ru

Aviv Geffen - Keren Or - аккорды и текст, видео

Печатать
Просмотров: 79
Keren Or
Aviv Geffen
מילון אקורדים:
Em7b5: **2333
Am/B:  *22210
פתיחה:
   Am  Em       F        Em      Dm     
e||--------------------7-------5------||
B||-8--8^7-5-8^10-10-----5-8-------6--||
G||------------------------------7----||
D||-----------------------------------||
A||-----------------------------------||
E||-----------------------------------||
Am        F       Dm     Bm        Em      C  Am/B      Am
אם תרצי אותי אני כאן זוכר אותך היטב זוכר עד שכואב יותר מדי
A    Em7b5  F      Dm    Bm        Em      C   Am/B    Am
אם תרצי אותי אני בא חושב עלייך הרבה חושב עד שבוכה נשבר
פזמון:
A7M      D        E      F#m     A
מי לקח אותך גבוה מי השאיר אותי לבד
A           G      F#m       Em   
אם הייתי רק בטוח כשאמות אפגוש אותך
A7M           D       E         F#m   
ציפורים עפות ברוח להן תמיד יש קן לחזור
A           G      F#m       Em      
ואני תמיד אשיר לך הלא שירי לך קרן אור
מעבר:
   Am  Em       F        Em      Dm
e||--------------------7-------5------||
B||-8--8^7-5-8^10-10-----5-8-------6--||
G||------------------------------7----||
D||-----------------------------------||
A||-----------------------------------||
E||-----------------------------------||
Am        F      Dm   Bm      Em    C  Am/B       Am
ואני עכשיו יודע שיש מלאך אחד ששם רק במיוחד ישמור עלי
A   Em7b5  F      Dm    Bm        Em     C   Am/B      Am
ובחוץ כבר ערב חג בא אמרו "מה שתרצה" רציתי רק לראות אותך
פזמון
 Am    
קרן אור
Добавлено: 16.10.2015
Другие материалы по этой песне:
  • Аккорды и текст

Страница создана 16.10.2015
http://primanota.ru/aviv-geffen/keren-or-chords.htm
Привет, Гость.
Предлагаем пройти революционный курс по гитаре.
Подарок от PrimaNota.Ru, забирай!